Song name
# A B C D E F G H I J K L M N O P Q R S T U V W X Y Z

Blink 182 - Pathetic tab

Group: Blink 182
Song: Pathetic

Intro
e|--------------------------------------|---------------|
B|--------------------------------------|---------------|
G|-9-11---9-11---9-11-----9-8-9-8-9--X3-|-9-11---9-11---|
D|------9------9------9-9---------------|------9------9-|
A|--------------------------------------|---------------|
E|--------------------------------------|---------------|

Verse
e|-----------------------------------|
B|-----------------------------------|
G|---------------7-7-7-7-9-9-9-9-----|
D|-7-7-7-7-7-7-7-7-7-7-7-9-9-9-9--X4-|
A|-7-7-7-7-7-7-7-5-5-5-5-7-7-7-7-----|
E|-5-5-5-5-5-5-5---------------------|

Chorus
e|-----------------------------------------------------|
B|-----------------------------------------------------|
G|-----------------------------------------------------|
D|-7-7-7-7-7-7-5-5-5-5-5-5-3-3-3-3-3-3-3-3-3-3-3-3-----|
A|-7-7-7-7-7-7-5-5-5-5-5-5-3-3-3-3-3-3-3-3-3-3-3-3--X2-|
E|-5-5-5-5-5-5-3-3-3-3-3-3-1-1-1-1-1-1-1-1-1-1-1-1-----|

Chorus 2
e|-----------------------------------------------------------|
B|-----------------------------------------------------------|
G|-----------------------------------------------------------|
D|-----------------------------------------------------------|
A|-7-7-7-7-7-7-5--5-5-5-5-5-5-3--3-3-3-3-3-3-3-3-3-3-3-3--X2-|
E|-5-5-5-5-5-5--7-3-3-3-3-3-3--5-1-1-1-1-1-1-1-1-1-1-1-1-----|

Bridge
e|--------------------------------------|
B|--------------------------------------|
G|-9-11---9-11---9-11-----9-8-9-8-9--X4-|
D|------9------9------9-9---------------|
A|--------------------------------------|
E|--------------------------------------|

End
e|-----------------------------------------------------------|
B|-----------------------------------------------------------|
G|-----------------------------------------------------------|
D|-------------------------------3-3-3-3-3-3-3-3-3-3-3-3-----|
A|-7-7-7-7-7-7-5--5-5-5-5-5-5-3--3-3-3-3-3-3-3-3-3-3-3-3--X2-|
E|-5-5-5-5-5-5--7-3-3-3-3-3-3--5-1-1-1-1-1-1-1-1-1-1-1-1-----|

Intro
Verse
Chorus
Intro
Verse
Chorus 2
Bridge
End
Tap to rate this tab
# A B C D E F G H I J K L M N O P Q R S T U V W X Y Z