Blink 182 - I Miss You chords

Highlighted       Show chord diagrams
Blink 182 - I Miss You

Notes:
 -The strumming pattern for
  the beginning is what you'd
  play for the verse you don't
  play the actual chords reffrenced
 - x = dead note
 - / = slide
 -The chords i list are in the chorus
  i didn't post the verse chords because
  it's just be "B D#.... B D#....." So
  i simply put the bass note you pick 
  which changes every measure.
 -The chorus chords may seem goofy but
  I assure you they are right, i thought 
  it was weird at first too when i translated
  what i heard to the guitar neck, but it's
  right odd enough 

Chords  - E A D  G B E
B       - X 2 X  4 4 X
C#7sus2 - X 4 X  4 4 X
B/D#    - X X 1  4 4 X
B/F#    - X X 4  4 4 X
E       - 0 7 6  X X X
A#/E    - 0 7 8  X X X
E5      - 0 7 10 X X X 



Intro: (strumming pattern for verses)
  B                     Bb                 G#                 Bb         
E|---------------------|------------------|------------------|------------------|
B|---------------------|------------------|------------------|------------------|
G|-------4--4-8-8-8-8--|-----4--4-4-4-4-4-|-----4--4-4-4-4-4-|-----4--4-4-4-4-4-|
D|-------x--x-x-x-x-x--|-----x--x-x-x-x-x-|-----x--x-x-x-x-x-|-----x--x-x-x-x-x-| x3
A|-0h2-2-2--2/6-6-6-6--|-1-1-2--2/6-6-6-6-|-----2--2/6-6-6-6-|-1-1-2--2/6-6-6-6-|
E|------------7-7-7-7--|------------------|-4-4--------------|------------------|

Verse 1:
B                Bb
Hello there, the angel from my nightmare
    G#                              Bb
The shadow in the background of the morgue
                 B         Bb
The unsuspecting victim of darkness in the valley
       G#                             Bb
We can live like Jack and Sally if we want
                     B
Where you can always find me
           Bb
We'll have Halloween on Christmas
    G#                                 Bb
And in the night we'll wish this never ends
                      B 
We'll wish this never ends

Interlude: 
B - C#7sus2 - B/D# - B/F# | E - A#/E - E5 |
                          (I miss you)        X2

Verse 2:
      B           Bb
Where are you and I'm so sorry
  G#                            Bb
I cannot sleep I cannot dream tonight
                    B
I need somebody and always
     Bb
This sick strange darkness
      G#                            Bb
Comes creeping on so haunting every time
                  B
And as I stared I counted
Bb
Webs from all the spiders
G#                                 Bb
Catching things and eating their insides
                   B
Like indecision to call you
    Bb
and hear your voice of treason
     G#                                 Bb
Will you come home and stop this pain tonight
                 B
Stop this pain tonight

Chorus:
B                C#7sus2    B/D#        B/F#
Don't waste your time  on   me you're already
    E      A#/E     E
The voice inside my head (I miss you, miss you)
B                C#7sus2    B/D#        B/F#
Don't waste your time  on   me you're already
    E      A#/E     E
The voice inside my head (I miss you, miss you)

Solo:
  B                     Bb                 G#                 Bb         
E|---------------------|------------------|------------------|------------------|
B|---------------------|------------------|------------------|------------------|
G|-------4--4-8-8-8-8--|-----4--4-4-4-4-4-|-----4--4-4-4-4-4-|-----4--4-4-4-4-4-|
D|-------x--x-x-x-x-x--|-----x--x-x-x-x-x-|-----x--x-x-x-x-x-|-----x--x-x-x-x-x-| x2
A|-0h2-2-2--2/6-6-6-6--|-1-1-2--2/6-6-6-6-|-----2--2/6-6-6-6-|-1-1-2--2/6-6-6-6-|
E|------------7-7-7-7--|------------------|-4-4--------------|------------------|
 |Lead                 |                  |                  |                  |
E|-7-------------------|-6----------------|-4----------------|-6----------------|
B|-x-------------------|-x----------------|-x----------------|-x----------------|
G|-4-------------------|-3----------------|-1----------------|-3----------------|
D|---------------------|------------------|------------------|------------------|
A|---------------------|------------------|------------------|------------------|
E|---------------------|------------------|------------------|------------------|

Chorus:
B                C#7sus2    B/D#        B/F#
Don't waste your time  on   me you're already
    E      A#/E     E
The voice inside my head (I miss you, miss you)
B                C#7sus2    B/D#        B/F#
Don't waste your time  on   me you're already
    E      A#/E     E
The voice inside my head (I miss you, miss you)
B                C#7sus2    B/D#        B/F#
Don't waste your time  on   me you're already
    E      A#/E     E
The voice inside my head (I miss you, miss you)
B                C#7sus2    B/D#        B/F#
Don't waste your time  on   me you're already
    E      A#/E     E
The voice inside my head (I miss you, miss you)
Tap to rate this tab
 
# A B C D E F G H I J K L M N O P Q R S T U V W X Y Z