Guitaretab - guitar tabs
Song name
# A B C D E F G H I J K L M N O P Q R S T U V W X Y Z

Blink 182 - Time tab

Title:Time
Artist:blink-182
Album:Buddah
          intro
e|---------------------------------------|
b|---------------------------------------|
g|---------------------------------------| 
d|7~~---77-7\9--99-9\1111--1111/77---777-|
a|x~~---xx-5\7--77-7\9-9---9-9-/55---555-|
E|5~~---55-------------------------------|

e|---------------------------------------|
b|---------------------------------------|
g|---------------------------------------|
d|7~~---77-7\9--99-9\1111--1111/77-777777|
a|x~~---xx-5\7--77-7\9-9---9-9-/55-xxxxxx|
E|5~~---55-------------------------555555|

[ Tab from: http://www.guitaretab.com/b/blink-182/24890.html ]
e|----------------------| |-------------------|
b|----------------------| |-------------------|
g|-------99-111111----99| |-------99-111111111| 2x
d|777-xx-xx-xxxxxx-xx-xx| |777-xx-xx-xxxxxxxxx|
a|xxx-xx-77-9-9-9--xx-77| |xxx-xx-77-9-9-9-9-9|
E|555-xx-----------xx---| |555-xx-------------|
~~~~~~~~~~~~~~~~~~~~~~~~~ 
play this part angain twice 
with alot of distortion 


  verse
e|---------------|  |--------------|
b|---------------|  |--------------|
g|----999-----777|  |----999-11-9-7| 4x 
d|777-xxx-777-xxx|  |777-xxx-x--x-x|
a|xxx-777-xxx-555|  |xxx-777-9--7-5|
E|555-----555----|  |555-----------|
these two riffs are switched back and forth

  chorus
e|---------------------|
b|---------------------|
g|-----9~-9-11~-11-7~-7|
d|7~-7-x~-x-x-~-x--x~-x|
a|x~-x-7~-7-9-~-9--5~-5|
E|5~-5-----------------|
Related for Time tab
Advertisement will be closed in 10 seconds