Guitaretab - guitar tabs
Song name
# A B C D E F G H I J K L M N O P Q R S T U V W X Y Z

Blink 182 - Dammit tab

Group: Blink 182
Song: Dammit

Intro                                           
e|---------------------------------------------|
B|---------------------------------------------|
G|---------------------------------------------|
D|------0-0-2-----0-0-2-----0-0-2-----2-2-0-X4-|
A|--3-3----------------------------------------|
E|------------3-3-------5-5-------1-1----------|

Verse
e|---------------------|------------------------------------|
B|---------------------|------------------------------------|
G|--5~~-----2~~--------|-5-5-5-5---------2-2-2-2------------|
D|--5~~-5~~-2~~-3~~-X2-|-5-5-5-5-5-5-5-5-2-2-2-2-3-3-3-3-X2-|
A|--3~~-5~~-0~~-3~~----|-3-3-3-3-5-5-5-5-0-0-0-0-3-3-3-3----|
E|------3~~-----1~~----|---------3-3-3-3---------1-1-1-1----|

Chorus
e|--------------------------------------------|
B|--------------------------------------------|
G|-5-5-5-5-5----------------------------------|
D|-55-5-5-5-5-5-5-5-5-7-7-7-7-7-3-3-3-3-3-X2-|
A|-3-3-3-3-3-5-5-5-5-5-7-7-7-7-7-3-3-3-3-3----|
E|-----------3-3-3-3-3-5-5-5-5-5-1-3-3-3-3----|

Solo
e|----------------------------------------------------------------------|
B|----------------------------------------------------------------------|
G|-7--9------9--5-----7--9------7--9------9--5-----7--9------9--5-------|
D|-------10--------5--------10--------10--------5--------10--------5-10-|
A|----------------------------------------------------------------------|
E|----------------------------------------------------------------------|

Intro
Verse
Intro
Verse
Chorus
Intro
Verse
Chorus
Solo
Intro
End
e|-----|
B|-----|
G|-----|
D|-----|
A|-3~~-|
E|-----|

[ Tab from: http://www.guitaretab.com/b/blink-182/24899.html ]
Related for Dammit tab