Song name
# A B C D E F G H I J K L M N O P Q R S T U V W X Y Z

Blink 182 - Reckless Abandon tab

This Tab is for sure 100% correct!!!!

Artist: Blink 182
Song:   Reckless Abandon
Album:  Take Off Your Pants and Jacket
Year:   2001

Intro/Chorus:

e------------------------------------------------------------------|
B------------------------------------------------------------------|
G-4-4-4-4-4-4-4-4-4-4--4-4-4-4-4-4-4-4-4-4-------------------------|
D-4-4-4-4-4-4-4-4-4-4--2-2-2-2-2-2-2-2-2-2--6-6-6-6-6--4-4-4-4-4---|
A-2-2-2-2-2-2-2-2-2-2--2-2-2-2-2-2-2-2-2-2--6-6-6-6-6--4-4-4-4-4---|
E----------------------0-0-0-0-0-0-0-0-0-0--4-4-4-4-4--2-2-2-2-2---|

e------------------------------------------------------------------|
B------------------------------------------------------------------|
G------------------------------------------------------------------|
D-2-2-2-2-2--------------------------------------------------------|
A-2-2-2-2-2--------------------------------------------------------|
E-0-0-0-0-0--------------------------------------------------------|

Main Riff:

e------------------------------------------------------------------|
B------------------------------------------------------------------|
G------------------------------------------------------------------|
D-1---4-2-1---4-2-1---4-2-1---1-2----------------------------------|
A---2-------2-------2-------2-----4--------------------------------|
E------------------------------------------------------------------|

Verse:

e------------------------------------------------------------------|
B------------------------------------------------------------------|
G-4-4-4-4-4-4-4-4-4-4--4-4-4-4-4-4-4-4-4-4-------------------------|
D-4-4-4-4-4-4-4-4-4-4--4-4-4-4-4-4-4-4-4-4-------------------------|
A-2-2-2-2-2-2-2-2-2-2--x-x-x-x-x-x-x-x-x-x-------------------------|
E----------------------2-2-2-2-2-2-2-2-2-2-------------------------|

Bridge:

e------------------------------------------------------------------|
B------------------------------------------------------------------|
G-4~~~~~4~~~~~-----------------------------------------------------|
D-4~~~~~2~~~~~8~~~~~6~~~~~2~~~~~-----------------------------------|
A-2~~~~~2~~~~~6~~~~~4~~~~~2~~~~~-----------------------------------|
E-------0~~~~~6~~~~~4~~~~~0~~~~~-----------------------------------|

End On:

e------------------------------------------------------------------|
B------------------------------------------------------------------|
G-4~~~~~-----------------------------------------------------------|
D-2~~~~~-----------------------------------------------------------|
A-2~~~~~-----------------------------------------------------------|
E------------------------------------------------------------------|


I hope you enjoy!!!!!!
Tabbed by Joe O!
Tap to rate this tab
 
# A B C D E F G H I J K L M N O P Q R S T U V W X Y Z