Song name
# A B C D E F G H I J K L M N O P Q R S T U V W X Y Z

Blink 182 - Mutt tab

----------------------------------------------------------------------------
                              Mutt-Blink 182
----------------------------------------------------------------------------
Album:Enema of the State
Tuning:Standard

Tabbed by:WARNINGnimrod12
Email:WARNINGnimrod182@aim.com


   Now just to let you know, the |-7-7h-9-| on the A string in the chorus 
isn't the guitar. It's the bass so I didn't include it in the tab.


  INTRO x2

   E|---------------------------------------------------------------------|
   B|---------------------------------------------------------------------|
   G|------6-------6-------6-------6-------6-------6-------6-------6------|
   D|---------7-------7-------7-------7-------7-------7-------7-------7---|
   A|-----------------------------------5-------5-------5-------5---------|
   E|---5-------5-------5-------5-----------------------------------------|


  VERSE 

   E|-----------------------------------------------------------------|
   B|-----------------------------------------------------------------|
   G|---------------------5h6----5h6------6------6------6h7-----6h7---|
   D|-------7------7--------------------------------------------------| x2
   A|--------------------------------4-4----4-4----5-5------5-5-------|
   E|---5-5----5-5----5-5----5-5--------------------------------------|
   P.M. * *    * *    * *    * *     * *    * *    * *      * * 


   E|-----------------------------------------------------------------|
   B|-----------------------------------------------------------------|
   G|-----------------------------------------------------------------|
   D|---------------------------------7--7-7-7-7-7-7-6--6-6-6-6-6-6---|
   A|---7--7-7-7-7-7-7-7--7-7-7-7-7-7-5--5-5-5-5-5-5-4--4-4-4-4-4-4---|
   E|---5--5-5-5-5-5-5-5--5-5-5-5-5-5---------------------------------|


   E|-----------------------------------------------------------------|
   B|-----------------------------------------------------------------|
   G|-----------------------------------------------------------------|
   D|---------------------------------7--7-7-7-7-7-7-6--6-6-6-6-6-6---|
   A|---7--7-7-7-7-7-7-7--7-7-7-7-7-7-5--5-5-5-5-5-5-4--4-4-4-4-4-4---|
   E|---5--5-5-5-5-5-5-5--5-5-5-5-5-5---------------------------------|


   E|---------------------------------------------------------------------|
   B|---------------------------------------------------------------------|
   G|---------------------------------------------------------------------|
   D|---7-7-7-7-7-7-7-7-7-7-7-7-7-7-7-7-7-7-7-7-7-7-7-7-9-9-9-9-9-9-9-9---|
   A|---5-5-5-5-5-5-5-5-5-5-5-5-5-5-5-5-5-5-5-5-5-5-5-5-7-7-7-7-7-7-7-7---|
   E|---------------------------------------------------------------------|


  CHORUS x6

   E|----------------------------------------------------------------|
   B|----------------------------------------------------------------|
   G|------------------------------------------------7--7-7-6--6-6---|
   D|---7--7-7-7-7-7-7-7--7-7-7-7-7-7-9--9-9-9-9-9-9-x--x-x-x--x-x---|
   A|---x--x-x-x-x-x-x-x--x-x-x-x-x-x-x--x-x-x-x-x-x-5--5-5-4--4-4---|
   E|---5--5-5-5-5-5-5-5--5-5-5-5-5-5-7--7-7-7-7-7-7-----------------|


  INTRO x2

  VERSE 2

  CHORUS 2 x6

  BRIDGE 

   E|-----------------------------------------------------------|
   B|-----------------------------------------------------------|
   G|-----------------------------------------------------------|
   D|------------------------------------------------7-7--6-6---| x2
   A|---7-7---------------------------9-9------------5-5--4-4---|
   E|---5-5---------------------------7-7-----------------------|
   P.M. * *                           * *            * *  * * 


   E|---------------------------------------------------------------------|
   B|---------------------------------------------------------------------|
   G|------6-------6-------6-------6-------6-------6-------6-------6------|
   D|---------7-------7-------7-------7-------7-------7-------7-------7---|
   A|---------------------------5-------------------------------5---------|
   E|---5-------5-------7---------------5-------5-------7-----------------|


  CHORUS 3 x4

  OUTRO

   E|-----------------------------------------------------------|
   B|-----------------------------------------------------------|
   G|-----------------------------------------------------------|
   D|------------------------------------------------7-7--6-6---|
   A|---7-7---------------------------9-9------------5-5--4-4---|
   E|---5-5---------------------------7-7-----------------------|


   E|-----------------------------------------------------------|
   B|-----------------------------------------------------------|
   G|-----------------------------------------------------------|
   D|------------------------------------------------7-7--6-6---|
   A|---7-7---------------------------9-9------------5-5--4-4---|
   E|---5-5---------------------------7-7-----------------------|


   E|-----------------------|
   B|-----------------------|
   G|-----------------------|
   D|---7~------------------|
   A|---7~------------------|
   E|---5~------------------|



   ORDER:

   INTRO x2
   VERSE
   CHORUS x6
   INTRO x2
   VERSE 2
   CHORUS 2 x6
   BRIDGE x2
   CHORUS 3 x4
   OUTRO
Tap to rate this tab
 
# A B C D E F G H I J K L M N O P Q R S T U V W X Y Z