Song name
# A B C D E F G H I J K L M N O P Q R S T U V W X Y Z

Blink 182 - What Went Wrong tab

Title:What Went Wrong
By:Blink 182
Standard Tuning

INTRO PT1
E|------------------|
B|------------------|
G|---4-2---4--------|
D|-2-----2---2------|
A|------------------|
e|------------------|
INTR PT 2
E|------------------------------------------
B|------------------------------------------
G|----------------------------77777777------  2xs
D|--7777777777777---44444444--77777777------
A|--7777777777777---44444444--55555555------
e|--5555555555555---22222222----------------

E|----------------------------------------------------------
B|----------------------------------------------------------
G|----------------------------------9999999999---77777777777
D|--777777777777777--444444444444---9999999999---77777777777
A|--777777777777777--444444444444---7777777777---55555555555
e|--555555555555555--222222222222---------------------------
   IM sick of always hearing all the sad songs on the radio

E|-------------------------
B|-------------------------
G|---------------------------------99999999999999999999---77777777777777777777777
D|777777777777777-44444444444444---99999999999999999999---77777777777777777777777
A|777777777777777-44444444444444---77777777777777777777---55555555555555555555555
e|555555555555555-22222222222222------------------------
All day    it is there to remind an over-sensitive guy that he's lost and alone,yeah

E|------------------------------------------------
B|------------------------------------------------
G|-------------------------------------77777777777
D|----777777777777777777---44444444444-77777777777  2X'S
A|----777777777777777777---44444444444-55555555555
e|----555555555555555555---22222222222------------

E|---------------------------------------------------------------------
B|---------------------------------------------------------------------
G|---------------------------------99999999999999999---7777777777777777
D|7777777777777777777-444444444444-99999999999999999---7777777777777777
A|7777777777777777777-444444444444-77777777777777777---5555555555555555
e|5555555555555555555-222222222222-------------------------------------
  I hate our favorite resaurant, our favorite movie, our favorite show


YOU GET THE IDEA NOW PLAY CHORUS
E|-----------------------------------------------
B|-----------------------------------------------
G|-----------------------------------------------
D|----------------------------------7777777777777
A|--77777777777777777777-4444444444-5555555555555 2X'S
e|--55555555555444444444-2222222222--------------



SOLO
E|-----0------------------0--------0--
B|--------------2---------------------
G|---2---2----2---2-----2---2----2---2
D|------------------------------------
A|------------------------------------
e|-2--------2---------2--------2------

E|---0----------0--------0------
B|--------2----------2--------2-
G|-2--2--2-2--2--2--2-2-2--2-2-2
D|0-----0----0-----0---0----0---
A|------------------------------
e|------------------------------
 
E|----0------------------------------------
B|------------2--------2-----2------2-----2--222222
G|--2---2---2---2----2-----2------2-----2----222222
D|-----------------0-----0-----0------0------000000
A|0-------0--------------------------------
e|-----------------------------------------
BRIDGE
E|----------------------------------------------
B|----------------------------------------------
G|-----------777777777---------99999999-77777777
D|-444444444-77777777777777777-99999999-77777777  2X'S
A|-444444444-55555555577777777-77777777-55555555
e|-222222222----------55555555------------------

ENDING
the when he starts singin 
Im KICKING OUT FIERCY AT THE WORLD AORUND ME WHAT WENT WRONG
E|-----------------------------------------------------------
B|-----------------------------------------------------------
G|---------------------------7777777777777-999999999777777777
D|7777777777777-444444444444-7777777777777-999999999777777777 PLAY THIS 8x's
A|7777777777777-444444444444-5555555555555-777777777555555555
e|5555555555555-222222222222---------------------------------

ORDER:
PART 1
Part 2
VERSE 
PART 2
VERSE 
CHORUS 
Part 2
VERSE
CHORUS 
solo
BRIDGE 
ENDING
Tap to rate this tab
 
# A B C D E F G H I J K L M N O P Q R S T U V W X Y Z