Guitaretab - guitar tabs
Song name
# A B C D E F G H I J K L M N O P Q R S T U V W X Y Z

Blink 182 - Touchdown Boy tab

This tab is 100% right my band does a cover of this song
I didnít put the strumming patterns but its easy to figure out

The intro is pretty long but here it is

INTRO part 1
Play 6x
e---------------------------------------------------------------|
B---------------------------------------------------------------|
G---------------------------------------------------------------|
D-9-----8-----4-------------------------------------------------|
A-7-----6-----2-----7-6-2---------------------------------------|
E-------------------5-4-0---------------------------------------|

Part 2 2x
e--------------------------------------------------------------------|
B--------------------------------------------------------------------|
G--------------------------------------------------------------------|
D-------6h7-9---------6h7-9--------6h7-9-------6h7-9-7-6-------------|
A--2--------------11 -----------9-----------7------------------------|
E--0--------------9-------------7-----------5------------------------|

Part 3 2x
e-----------------------------------------------------------------------|
B-----------------------------------------------------------------------|
------------------------------------------------------------------------|
D-------------9-7-6-------------------9-7-6----------------------6-7-6--|
A 2-2-2-2-2-2---------9-9-9-9-9-9-9-9----------7-7-7-7-7-7-7-7----------|
E-0-0-0-0-0-0---------7-7-7-7-7-7-7-7----------5-5-5-5-5-5-5-5----------|

[ Tab from: http://www.guitaretab.com/b/blink-182/25331.html ]
e--------------------------------|
B--------------------------------|
G--------------------------------|
D-----------------------6-7-6----|
A-2-2-2-2-2-2-2-2----------------|
E-0-0-0-0-0-0-0-0----------------|

Part 4
___________2 times____________
e------------------------------------------------------------|
B------------------------------------------------------------|
G------------------------------------------------------------|
D---9------9---9---7-----7----7------------------------------|
A-7---7-7---7---7---7-7---7-7---------9-9-9-9-9-9-9-9--------|
E-------------------------------------7-7-7-7-7-7-7-7--------|
VERSE

e----------------------------------------------------------------------|
B----------------------------------------------------------------------|
G----------------------------------------------------------------------|
D-9-9-6-6h7-9----------6-6h7-9---------6-6h7-9-----------6-6h7-9-------|
A-7-7------------11-11--------------9-9--------------7-7---------------|
E----------------9---9--------------7-7--------------5-5---------------|
  PM              PM                PM               PM


CHORUS strum each chord 14 times


e-------------------------------|
B-------------------------------|
G-------------------------------|
D-------------------------------|
A-2--------9------- 7--------2--|
E-0--------7--------5--------0--|

Song Order:
INTRO all parts
VERSE 4x
CHORUS 2x
INTRO Part 1 4x
VERSE 2x
CHORUS 2x
INTRO Part 1 4x
Related for Touchdown Boy tab