Song name
# A B C D E F G H I J K L M N O P Q R S T U V W X Y Z

Blink 182 - What Went Wrong tab

    100%correct!

 Intro(clean guitar)
E|-----------------------------------------------------------------
B|-----------------------------------------------------------------
G|-----------------------------------------------------------------
D|------------9------7-------------------9------7------------------
A|----7---------------------------7--------------------------------
E|-----------------------------------------------------------------

Keep playing the intro until RIFF 2
After playing the into once another guitar comes in
RIFF 1 (play quickly)
E|------------------------------------------------------------
B|------------------------------------------------------------
G|---------------------------------------------7-7-7-7-7-7-7--   x2
D|-7-7-7-7-7-7-7-7-7-7-7-7-7-7--4-4-4-4-4-4-4--7-7-7-7-7-7-7--
A|-7-7-7-7-7-7-7-7-7-7-7-7-7-7--4-4-4-4-4-4-4--5-5-5-5-5-5-5--
E|-5-5-5-5-5-5-5-5-5-5-5-5-5-5--2-2-2-2-2-2-2-----------------

...stop playing intro with first guitar
RIFF 2
E|---------------------------------------------------
B|---------------------------------------------------
G|---------------------------------------------------   *RIFF 2 cont.
D|-7-7-7-7-7-7-7-7-7-7-7-7--4-4-4-4-4-4-4-4-4-4-4-4--     below*
A|-7-7-7-7-7-7-7-7-7-7-7-7--4-4-4-4-4-4-4-4-4-4-4-4--
E|-5-5-5-5-5-5-5-5-5-5-5-5--2-2-2-2-2-2-2-2-2-2-2-2--
                                                        x2
E|---------------------------------------------------
B|---------------------------------------------------
G|-9-9-9-9-9-9-9-9-9-9-9-9--7-7-7-7-7-7-7-7-7-7-7-7--
D|-9-9-9-9-9-9-9-9-9-9-9-9--7-7-7-7-7-7-7-7-7-7-7-7--
A|-7-7-7-7-7-7-7-7-7-7-7-7--5-5-5-5-5-5-5-5-5-5-5-5--
E|---------------------------------------------------

Repeat RIFF 1 and RIFF 2
Then a new riff starts (0:55)
RIFF 3
E|---------------------------------------------------
B|---------------------------------------------------
G|---------------------------------------------------   *RIFF 3 cont.
D|-7-7-7-7-7-7-7-7-7-7-7--6-6-6-6-6-6-6-6-6-6-6------      below*
A|-7-7-7-7-7-7-7-7-7-7-7--6-6-6-6-6-6-6-6-6-6-6------
E|-5-5-5-5-5-5-5-5-5-5-5--4-4-4-4-4-4-4-4-4-4-4------
                                                          x2
E|---------------------------------------------------
B|---------------------------------------------------
G|-6-6-6-6-6-6-6-6-6-6-6--7-7-7-7-7-7-7-7-7-7-7------
D|-6-6-6-6-6-6-6-6-6-6-6--7-7-7-7-7-7-7-7-7-7-7------
A|-4-4-4-4-4-4-4-4-4-4-4--5-5-5-5-5-5-5-5-5-5-5------
E|---------------------------------------------------

After playing RIFF 3 you repeat RIFF 1, 2, and 3
Then after repeating the riffs play this
Solo
E|-------------------------------------------------------------------
B|-------------------------------------------------------------------
G|-------9-----------6-----------9-----------6-----------9-----------
D|----7-----7-----7-----7-----7-----7-----7-----7-----7-----7-----7--
A|-0-----------0-----------0-----------0-----------7-----------7-----
E|-------------------------------------------------------------------

  -------------------------------------------------------------------
  -------------------------------------------------------------------
  6-----------9-----------6-----------9-----------6-----------9------
  ---7-----7-----7-----7-----7-----7-----7-----7-----7-----7-----7---
  ------7-----------7-----------0-----------0------------------------
  ------------------------------------------------------7-----------7

  -------------------------------------------------------------------
  -------------------------------------------------------------------
  ------6---------------6--------6-----------6-6-6-6-6-6-6-6-6-6-6-6-
  ---7-----7---------7--------7--------7--7--7-7-7-7-7-7-7-7-7-7-7-7-
  ----------------5--------5--------5--------5-5-5-5-5-5-5-5-5-5-5-5-
  -------------------------------------------------------------------

  After solo you play RIFF 2 once and then this once
RIFF 2 (with a little changes)
E|--------------------------------------------------
B|--------------------------------------------------
G|--------------------------------------------------
D|-7-7-7-7-7-7-7-7-7-7-7-7--4-4-4-4-4-4-4-4-4-4-4-4-
A|-7-7-7-7-7-7-7-7-7-7-7-7--4-4-4-4-4-4-4-4-4-4-4-4-   cont. below
E|-5-5-5-5-5-5-5-5-5-5-5-5--2-2-2-2-2-2-2-2-2-2-2-2-

E|--------------------------------------------------
B|--------------------------------------------------
G|-9-9-9-9-9-9-9-9-9-9-9-9-9-9-9-9-9-9-9-9-9-9-9-9--
D|-9-9-9-9-9-9-9-9-9-9-9-9-9-9-9-9-9-9-9-9-9-9-9-9--
A|-7-7-7-7-7-7-7-7-7-7-7-7-7-7-7-7-7-7-7-7-7-7-7-7--   cont. below
E|--------------------------------------------------

E|--------------------------------------------------
B|--------------------------------------------------
G|-7-7-7-7-7-7-7-7-7-7-7-7-7-7-7-7-7-7-7-7-7-7-7-7--
D|-7-7-7-7-7-7-7-7-7-7-7-7-7-7-7-7-7-7-7-7-7-7-7-7--
A|-5-5-5-5-5-5-5-5-5-5-5-5-5-5-5-5-5-5-5-5-5-5-5-5--
E|--------------------------------------------------

  Finally, when your done playing that, play RIFF 1 eight times 
  and that is it!  Hope you like it.  It's easy and fun.
Tap to rate this tab
# A B C D E F G H I J K L M N O P Q R S T U V W X Y Z