Song name
# A B C D E F G H I J K L M N O P Q R S T U V W X Y Z

Blink 182 - What Went Wrong tab

normal tuning

intro:
|-----------|
|----0------|
|------2----|2x then riff 1 starts.
|--2--------|4x during riff 1.
|-----------|
|-----------|

riff 1:
|-------------------------------------------|
|-------------------------------------------|
|--------------------------7-7-7-7-7-7-7-7--|2x with intro then riff 2 begins with 
|--7-7-7-7-7-7-7-7-4-4-4-4-7-7-7-7-7-7-7-7--|singing.
|--7-7-7-7-7-7-7-7-4-4-4-4-5-5-5-5-5-5-5-5--|
|--5-5-5-5-5-5-5-5-2-2-2-2------------------|

riff 2:
|------------------------------------------------------------------|
|------------------------------------------------------------------|
|----------------------------------9-9-9-9-9-9-9-9-7-7-7-7-7-7-7-7-|2x during singing 
|--7-7-7-7-7-7-7-7-4-4-4-4-4-4-4-4-9-9-9-9-9-9-9-9-7-7-7-7-7-7-7-7-|part
|--7-7-7-7-7-7-7-7-4-4-4-4-4-4-4-4-7-7-7-7-7-7-7-7-5-5-5-5-5-5-5-5-|
|--5-5-5-5-5-5-5-5-2-2-2-2-2-2-2-2---------------------------------|

 1:"im sick of always hearing all these sad songs on the radio"
 2:"all day it is there to remind an over sensitive guy that hes lost and alone yeah"

intro & riff 1

 3:"i hate our favorite resturant our favorite movie our favorite show"
 4:"we would stay up all through the night we would laugh & get high & never answer the phone.

chorus:
|------------------------------------------------------------------|
|------------------------------------------------------------------|
|--------------------------------------------------7-7-7-7-7-7-7-7-|
|--7-7-7-7-7-7-7-7-7-7-7-7-7-7-7-7-4-4-4-4-4-4-4-4-7-7-7-7-7-7-7-7-|
|--7-7-7-7-7-7-7-7-7-7-7-7-7-7-7-7-4-4-4-4-4-4-4-4-5-5-5-5-5-5-5-5-|
|--5-5-5-5-5-5-5-5-4-4-4-4-4-4-4-4-2-2-2-2-2-2-2-2-----------------|

   1:"i cant forgive cant forget cant give in what went.."
   2:"wrong cause you said this was right you fucked up my life"

intro & riff 1

riff 2
 5:im sick of always hearing sappy love songs on the radio"
 6:"this place is fucken cursed in its plague & i could never escape when my heart it explodes.

chorus and both lines of chorus shown above are no played.

solo:
|------0---------------0---------------0---------------0---------------0----------
|--------------2---------------2---------------2---------------2---------------2--
|----2---2---2---2---2---2---2---2---2---2---2---2---2---2---2---2---2---2---2---2
|----------------------------------0-------0-------0-------0----------------------
|------------------------------------------------------------------0-------0------
|--2-------2-------2-------2------------------------------------------------------
                                                    |clarinet sols starts here
 -----0-----------------------------0-0-0-0-0-0-0-0-|-------------------------------
 -------------2-------2-----2-----2-2-2-2-2-2-2-2-2-|-------------------------------
 ---2---2---2---2---2-----2-----2---2-2-2-2-2-2-2-2-|----------------7-7-7-7-7-7-7-7
 -----------------0-----0-----0-----0-0-0-0-0-0-0-0-|4-4-4-4-4-4-4-4-7-7-7-7-7-7-7-7
 -0-------0-----------------------------------------|4-4-4-4-4-4-4-4-5-5-5-5-5-5-5-5
 ---------------------------------------------------|2-2-2-2-2-2-2-2----------------

 --------------------------------------------------|
 --------------------------------------------------|
 -----------------9-9-9-9-9-9-9-9-7-7-7-7-7-7-7-7--|2x
 -7-7-7-7-7-7-7-7-9-9-9-9-9-9-9-9-7-7-7-7-7-7-7-7--|
 -7-7-7-7-7-7-7-7-7-7-7-7-7-7-7-7-5-5-5-5-5-5-5-5--|
 -5-5-5-5-5-5-5-5----------------------------------|

outro:
|--------------------------------------------------------------------------|
|--------------------------------------------------------------------------|
|--------------------------7-7-7-7-7-7-7-7-9-9-9-9-9-9-9-9-7-7-7-7-7-7-7-7-|
|--7-7-7-7-7-7-7-7-4-4-4-4-7-7-7-7-7-7-7-7-9-9-9-9-9-9-9-9-7-7-7-7-7-7-7-7-|x4
|--7-7-7-7-7-7-7-7-4-4-4-4-5-5-5-5-5-5-5-5-7-7-7-7-7-7-7-7-5-5-5-5-5-5-5-5-|
|--5-5-5-5-5-5-5-5-2-2-2-2-------------------------------------------------|
 1:"im kickin' out fiercely of the world all around me what went wrong."x4

|------|
|------|
|------|
|-7----|
|-7----|
|-5----|

"im kickin'
                         thanks for using my tab! i hoped you enjoyed it!

                         






Tap to rate this tab
 
# A B C D E F G H I J K L M N O P Q R S T U V W X Y Z