Song name
# A B C D E F G H I J K L M N O P Q R S T U V W X Y Z

Blink 182 - Fentoozler tab

Artist: Blink 182 
Song: Fentoozler
Album: Cheshire Cat
Tabbed By Kevin T. 


Intro
e|--------------------------------------------------------------------| 
B|--------------------------------------------------------------------| 
G|----------------11--11-11-11-11-11-11----------------9--9-9-9-9-9-9-| 
D|-9--9-9-9-9-9-9-11--11-11-11-11-11-11-9--9-9-9-9-9-9-9--9-9-9-9-9-9-| 
A|-9--9-9-9-9-9-9--9---9--9--9--9--9--9-9--9-9-9-9-9-9-7--7-7-7-7-7-7-| 
E|-7--7-7-7-7-7-7-----------------------7--7-7-7-7-7-7----------------| 

e|------------------------------------------------------|
B|------------------------------------------------------|
G|----------------6--6-6-6-6-6-6-9--9-9-9-9-9-9-8-------|
D|-9--9-9-9-9-9-9-6--6-6-6-6-6-6-9--9-9-9-9-9-9-8---9---|
A|-9--9-9-9-9-9-9-4--4-4-4-4-4-4-7--7-7-7-7-7-7-6---9---|
E|-7--7-7-7-7-7-7-----------------------------------7---|

Verse
e|------------------------------------------------------------|
B|------------------------------------------------------------|
G|---------------11-x-x-x-x-x-x-----------------9-x-x-x-x-x-x-|
D|-9-x-x-x-x-x-x-11-x-x-x-x-x-x--9-x-x-x-x-x-x--9-x-x-x-x-x-x-|
A|-9-x-x-x-x-x-x--9-x-x-x-x-x-x--9-x-x-x-x-x-x--7-x-x-x-x-x-x-|
E|-7-x-x-x-x-x-x-----------------7-x-x-x-x-x-x----------------|

e|-----------------------------------------------------|
B|-----------------------------------------------------|
G|----------------6-x-x-x-x-x-x--9--9-9-9-9-9-9-8------|
D|-9-x-x-x-x-x-x--6-x-x-x-x-x-x--9--9-9-9-9-9-9-8---9--|
A|-9-x-x-x-x-x-x--4-x-x-x-x-x-x--7--7-7-7-7-7-7-6---9--|
E|-7-x-x-x-x-x-x------------------------------------7--|

Chorus
e|------------------------------------------------------------|
B|------------------------------------------------------------|
G|-6--6-6-6-6-6-6-6-6----------------------9--9-9-9-9-9-9-9-9-|
D|-x--x-x-x-x-x-x-x-x--9--9-9-9-9-9-9-9-9--x--x-x-x-x-x-x-x-x-|
A|-4--4-4-4-4-4-4-4-4--x--x-x-x-x-x-x-x-x--7--7-7-7-7-7-7-7-7-|
E|---------------------7--7-7-7-7-7-7-7-7---------------------|

Solo
e|----------------------------------------------------------------------|
B|----------------------------------------------------------------------|
G|----------------------------------------------------------------------|
D|----------------------------------------------------------------------|
A|----------------------------------------------------------------------|
E|-7-6-7--7-7-7-9--9-9-9--9-9-12-12-12-11-9-7-6-7-9--12-12-11--12-12-11-|

e|---------------------------------------------------------------------------|
B|---------------------------------------------------------------------------|
G|---------------------------------------------------------------------------|
D|---------------------------------------------------------------------------|
A|---------------------------------------------------------------------------|
E|-12-12-11--12-12-14-11-12---12-12-11-7--12-12-11-7--7-7-9-9-11--7-7-9-9-11-|

e|--------------------------------------------------------------------------|
B|--------------------------------------------------------------------------|
G|--------------------------------------------------------------------------|
D|--------------------------------------------------------------------------|
A|--------------------------------------------------------------------------|
E|-7-7-9-9-12---12-11-9-7---7--7-7-7-7--9--9-9-9-9--12--12-12-12--12-11-9-7-|


e|--------------------------------------------------------------------| 
B|--------------------------------------------------------------------| 
G|----------------11--11-11-11-11-11-11----------------9--9-9-9-9-9-9-| 
D|-9--9-9-9-9-9-9-11--11-11-11-11-11-11-9--9-9-9-9-9-9-9--9-9-9-9-9-9-| 
A|-9--9-9-9-9-9-9--9---9--9--9--9--9--9-9--9-9-9-9-9-9-7--7-7-7-7-7-7-| 
E|-7--7-7-7-7-7-7-----------------------7--7-7-7-7-7-7----------------| 

e|--------------------------------------------------|
B|----------------------------------------------9---|
G|----------------6--6-6-6-6-6-6----------------9---|
D|-9--9-9-9-9-9-9-6--6-6-6-6-6-6-9--9-9-9-9-9-9-7---|
A|-9--9-9-9-9-9-9-4--4-4-4-4-4-4-9--9-9-9-9-9-9-----|
E|-7--7-7-7-7-7-7----------------7--7-7-7-7-7-7-----|


Intro:2x
Verse:2x
Chorus:1x
Intro:2x
Verse:2x
Chorus:1x
Solo:1x
Chorus:1x
Outro:1x






Tap to rate this tab
# A B C D E F G H I J K L M N O P Q R S T U V W X Y Z