Song name
# A B C D E F G H I J K L M N O P Q R S T U V W X Y Z

Blink 182 - Down Live tab

Hey! This is tab for the outro of the song Down by Blink 182 (li version from Teen 
Awards)

Tuning: Standart

During the outro Travis is playing drum part of Feeling This and Mark is playing intro 
Always. Here it is:

G:-4-4-4-4-4-4-4-4-6-6-6-6-6-6-6-6-8-8-8-8-8-8-8-8-4-4-4-4-4-4-4-4-|
D:-4-4-4-4-4-4-4-4-4-4-4-4-4-4-4-4-6-6-6-6-6-6-6-6-2-2-2-2-2-2-2-2-|
A:-----------------------------------------------------------------|
E:-----------------------------------------------------------------|

And this is what Tom is playing:

E:-----------------------------------------------------------|
B:---11---11--------11---11--------11---11--------11---11----|
G:-9----9----9~---9----9----9~---9----9----9~---9----9----9~-|
D:-----------------------------------------------------------|
A:-----------------------------------------------------------|
E:-----------------------------------------------------------|

E:-----------------------------------------------------------|
B:---11---11--------11---11--------11---11--------------11---|
G:-9----9----9~---9----9----9~---9----9----9~---9--9--9----9~|
D:-----------------------------------------------------------|
A:-----------------------------------------------------------|
E:-----------------------------------------------------------|

E:-------------------------------------------------------------------------|
B:-------------------------------------------------------------------------|
G:-9--8--9--11--9~---9--8--9--8--8h9~---9--8--9--11--9~---9--8--9--8--8h9~-|
D:-------------------------------------------------------------------------|
A:-------------------------------------------------------------------------|
E:-------------------------------------------------------------------------|

E:-------------------------------------------------------------------------|
B:---------11~--------------11~--------------11~---------------------------|
G:-9--8--9-----9~---9--8--9-----9~---9--8--9-----9~-----8h9~----------8h9~-|
D:-------------------------------------------------------------------------|
A:-------------------------------------------------------------------------|
E:-------------------------------------------------------------------------|

That's it, it's very easy. Enjoy!
Tap to rate this tab
 
# A B C D E F G H I J K L M N O P Q R S T U V W X Y Z