Song name
# A B C D E F G H I J K L M N O P Q R S T U V W X Y Z

Blink 182 - Waggy tab

Help us improve GuitareTab! Take a short survey!
Intro                                     x2
E|---------------------------------------|
B|---------------------------------------|
G|---7-6---6-7-6---7-6---6-7-6-----------|
D|-7-------7-----7-------7---------------|
A|---------------------------------------|
E|---------------------------------------|
                                          x2
E|---------------------------------------|
B|---------------------------------------|
G|-666666666-9-7-6-7-9---7-9-------------|
D|-xxxxxxxxx-x-x-x-x-x-7-x-x-7-----------|
A|-444444444-7-5-4-5-7-x-5-7-x-----------|
E|---------------------5-----5-----------|

Verse
E|---------------------------------------|
B|---------------------------------------|
G|---7-6---6-7-6---7-6---6-7-6-----------|
D|-7-------7-----7-------7---------------|
A|---------------------------------------|
E|---------------------------------------|

Chorus
E|---------------------------------------|x2
B|---------------------------------------|
G|-2~------------------------------------|
D|-2~----------77777777------------------|
A|-0~-44444444-55555555------------------|
E|----22222222---------------------------|

E|---------------------------------------|x4
B|---------------------------------------|
G|---------------------------------------|
D|------7777-----------------------------|
A|-4444-5555-99999999--------------------|
E|-2222------77777777--------------------|

E|---------------------------------------|
B|---------------------------------------|
G|-666666666-9-7-6-7-9------7-9----------|
D|-xxxxxxxxx-x-x-x-x-x-7777-x-x-7777-----|
A|-444444444-7-5-4-5-7-xxxx-5-7-xxxx-----|
E|---------------------5555-----5555-----|

Verse
E|---------------------------------------|
B|---------------------------------------|
G|---7-6---6-7-6---7-6---6-7-6-----------|
D|-7-------7-----7-------7---------------|
A|---------------------------------------|
E|---------------------------------------|

Chorus
E|---------------------------------------|x2
B|---------------------------------------|
G|-2~------------------------------------|
D|-2~----------77777777------------------|
A|-0~-44444444-55555555------------------|
E|----22222222---------------------------|

E|---------------------------------------|x1
B|---------------------------------------|
G|---------------------------------------|
D|------7777-----------------------------|
A|-4444-5555-99999999--------------------|
E|-2222------77777777--------------------|


E|---------------------------------------|x1
B|---------------------------------------|
G|---------------------------------------|
D|------7777-4~--------------------------|
A|-4444-5555-2~--------------------------|
E|-2222----------------------------------|

Solo
E|-------------------------------------------|
B|-------------------------------------------|
G|-------------------------------------------|
D|-77-77-------------------------------------|
A|-77-77-0-4h0-5h0-4h0-5h0-4h0-5h0-4h0-5h0---|
E|-55-55-------------------------------------|

Outro
E|---------------------------------------|x2
B|---------------------------------------|
G|-666666666-9-7-6-7-9------7-9----------|
D|-xxxxxxxxx-x-x-x-x-x-7777-x-x-7777-----|
A|-444444444-7-5-4-5-7-xxxx-5-7-xxxx-----|
E|---------------------5555-----5555-----|

E|---------------------------------------|
B|---------------------------------------|
G|---7-6---6-7-6---7-6---6-7-6-----------|
D|-7-------7-----7-------7---------------|
A|---------------------------------------|
E|---------------------------------------|

End on 
E|------|
B|------|
G|------|
D|--7~--|
A|--7~--|
E|--5~--|
Related for Waggy tab