Song name
# A B C D E F G H I J K L M N O P Q R S T U V W X Y Z

Blink 182 - Anthem Pt Ii tab

this song is possibly blinks most well written song!

OK.....this song has several guitar parts in it....I have no idea who plays them but theyre there all the same..

INTRO

Guitar 1 REPEAT HEAPS OF TIMES (riff A)
e 3---3---1---1---0---0---1---1-------
B --1---1---1---1---1---1---1---1------
G ----------------------
D ----------------------
A ----------------------
E ----------------------

Guitar 2 at same time as 1 (riff B)
e ----------------------
B ----------------------
G 5555-------5555-------
D XXXX-------XXXX-------
A 3333-------3333-------
E ----------------------

Guitar 3 follows bass comes in same time as percussion (riff C)
e ---------------------------------------------------------------
B ---------------------------------------------------------------
G ---------------------------------------------------------------
D ------------------------------------------------3-3-3-3-3-3-3-3
A 3-3-3-3-3-3-3-3-5-5-5-5-5-5-5-5-0-0-0-0-0-0-0-0------------
E ---------------------------------------------------------------

Guitar 4 comes in after 2x bass (x4) (riff D)
e ---------------------------------------------------------------
B ---------------------------------------------------------------
G ---------------------------------------------------------------
D ---0h3---2-----0h3---2----0h3---2-----0-----0-----------------
A 33----33----33----33----33----33----33----33--------------------
E ---------------------------------------------------------------

guitars 2&4 play this at the changeover of parts:
e ----------------------
B ----------------------
G 5555-------5555-------
D XXXX-------XXXX-------
A 3333-------3333-------
E ----------------------

guitars 1&3 play this after the above: (riff E)
e -----------------------------]THIS BIT X3 THEN END ON:
B -----------------------------]
G 9-9-9111111-9-9-9-5-5-5-7-7-7]
D X-X-X-X-X-X-X-X-X-X-X-X-X-X-X]
A 7-7-7-9-9-9-7-7-7-3-3-3-5-5-5]
E -----------------------------]

THEN END ON:
e ---------------------------]
B ---------------------------]
G 9-9-9111111-5-5-5-5-5-5-5-5]
D X-X-X-X-X-X-X-X-X-X-X-X-X-X]
A 7-7-7-9-9-9-3-3-3-3-3-3-3-3]
E ---------------------------]


Verse:    "We need guidence......" x2
e --------|-------------------------------
B --------|-------------------------------
G 9-9-9-9-|5-5-5-5-5-5-5-5-2-2-2-2--------
D X-X-X-X-|5-5-5-5-5-5-5-5-2-2-2-2-3-3-3-3
A 7-7-7-7-|3-3-3-3-3-3-3-3-0-0-0-0-3-3-3-3
E --------|------------------------1-1-1-1
          P.M............................

Clean guitar after verse: (riff F)
e ----------------------]
B ----------------------]
G ----------------------]
D -----------------------]
A ---7-----5-----3--------]
E 5---5-3---3-1----------]

Chorus: guitar 1

"..Need to................through"
e -------------------------------
B -------------------------------
G 5-5-5-5-5-5-5-5-5-5-5-5-7-7-7-7
D X-X-X-X-X-X-X-X-X-X-X-X-X-X-X-X
A 3-3-3-3-3-3-3-3-3-3-3-3-5-5-5-5
E -------------------------------

"..Give up! It's no use! If were fucked up you're..."
e -----------------------------------------------
B -----------------------------------------------
G 5-5-5-5-5-5-5-5-5-5-5-5-5-5-5-5-5-5-5-5-X-3----
D X-X-X-X-X-X-X-X-X-X-X-X-X-X-X-X-X-X-X-X-X-X-----
A 3-3-3-3-3-3-3-3-3-3-3-3-3-3-3-3-3-3-3-3-X-5-----
E ------------------------------------------------

Guitar 2
"..Need to................through"
e -------------------------------
B -------------------------------
G -------------------------------
D ----------------5-5-5-5--------
A 2-2-2-2-3-3-3-3-3-3-3-3-5-5-5-5
E 0-0-0-0-1-1-1-1---------3-3-3-3

"..Give up! ..."
e -----------------------------------
B -----------------------------------
G -----------------------------------
D --------------------5-5-5-5--------
A 7---7-7-7-7-3-3-3-3-3-3-3-3-5-5-5-5
E 5---5-5-5-5-1-1-1-1---------3-3-3-3
      P.M............................  

"..if we're.....you're to blame!"
e -----------------------------------
B -----------------------------------
G ----------------------------------
D --------------3--------------------
A 7-7-7-7-------3-----------------------
E 5-5-5-5-------1-----------------------
  P.M..........

Song Structure:

intro
verse
riff F
verse
riff F
Chorus
riff E
verse
riff F
chorus
interlude (like no guitar played on this bit so i didnt tab it!)
chorus
riffs D & A played over each other....end on e ---]
                                             B ---]
                                             G 5--]
                                             D X--]
                                             A 3--]
                                             E ---]
                                              
thats pretty much it!! hope u enjoy this song!! Questions comments dont bother cos i wont reply newayz!! nah jokes just mail em to suckerz@hotmail.com

 


Tap to rate this tab
 
# A B C D E F G H I J K L M N O P Q R S T U V W X Y Z