Song name
# A B C D E F G H I J K L M N O P Q R S T U V W X Y Z

Blink 182 - I Miss You tab

Rhythm 1
/=Slide, *=Muted, Start at 5 Seconds
e|-----------------------------------------------------------------|
B|-----------------------------------------------------------------|
G|---4/8---4/8-------4/8------4/8/4--------------------------------|Six times
D|---*/*---***-------***-------***---------------------------------|
A|---2/6---2/6-------2/6------2/6/2--------------------------------|
E|-----------------------------------------------------------------|

Piano Riff at 13 seconds
e|---------------------------------------------------------------------|
B|---------------------------------------------------------------------|
G|-------11----11--13-----11-------11----------------------------------|
D|---------------------------------------------------------------------|2
A|---14-----13--------11-------13--------------------------------------|Times
E|---------------------------------------------------------------------|


Chorus 1
e|-----------------------------------------------------------------------|
B|-----------------------------------------------------------------------|
G|--444/---666/--888/---111111/---999/-----------------------------------|
D|--***/---***/--***/---***/------***/-----------------------------------|
A|--222/---444/--666/---999/------777/-----------------------------------|
E|-----------------------------------------------------------------------|
Twice

Rhythm 2
e|-----------------------------------------------------------------|
B|-----------------------------------------------------------------|
G|---4/8---4/8-------4/8------4/8/4--------------------------------|4 times
D|---*/*---***-------***-------***---------------------------------|
A|---2/6---2/6-------2/6------2/6/2--------------------------------|
E|-----------------------------------------------------------------|

Chorus 2
e|-----------------------------------------------------------------------|
B|-----------------------------------------------------------------------|
G|--444/---666/--888/---111111/---999/-----------------------------------|
D|--***/---***/--***/---***/------***/-----------------------------------|
A|--222/---444/--666/---999/------777/-----------------------------------|
E|-----------------------------------------------------------------------|
Repeat until Fade out

Piano Riff 2, One Octave Low
e|---------------------------------------------------------------------|
B|---------------------------------------------------------------------|
G|---------------------------------------------------------------------|
D|--11------11------11---------11--------------------------------------|
A|------13------13-------13---------13---------------------------------|
E|---------------------------------------------------------------------|


e|-----------------------------------------------------------|
B|-----------------------------------------------------------|
G|---11----11---11-----11-----11-----------------------------| Twice
D|------13---13----13-----13----13--13--14--16--14--13--9----|
A|-----------------------------------------------------------|
E|-----------------------------------------------------------|
Tap to rate this tab
 
# A B C D E F G H I J K L M N O P Q R S T U V W X Y Z