Song name
# A B C D E F G H I J K L M N O P Q R S T U V W X Y Z

Blink 182 - Zulu tab

blink 182 - zulu
tabbed by mericlepunk

intro
e|-------|
b|-------|
g|-------|
d|---7---| let ring
a|---7---|
e|---5---|

Riff 1 
e|--------------------------------------------------------------------|
B|--------------------------------------------------------------------|
G|--------------------------------------------------------------------|
D|-777----777------777------------------------------------------------| 
A|----4445---4445-----44454445-7--------------------------------------|
E|--------------------------------------------------------------------|
                               
Riff 2
e|--------------------------|
B|--------------------------|
G|---------------777666-----|
D|-7-7-7-7-7-7-7------------|
A|-7-7-7-7-7-7-7------------|
E|-5-5-5-5-5-5-5------------|

riff 3
e|-------------------------------------------|
b|-------------------------------------------|
g|---9x9x-777666-----------------------------|
d|---9x9x------------------------------------|
a|---7x7x------------------------------------|
e|-------------------------------------------|

that was easy
Tap to rate this tab
 
# A B C D E F G H I J K L M N O P Q R S T U V W X Y Z