Song name
# A B C D E F G H I J K L M N O P Q R S T U V W X Y Z

Blink 182 - Adoms Song tab

  Intro: clean
d||------------------------------------------------------------------||
A||------------------------------------------------------------------||
F||------------------------------------------------------------------||
C||---4-0-----4-0-----4-0-----4-0-----4-0------4-0-----4-0-----4-0---||
G||-2-------2-------0-------0----------------------------------------||
D||---------------------------------3-------3--------0-------3-------||
                
                              

  Verse: distortion and palm mute
d||-----------------------------------------------------------------||
A||-----------------------------------------------------------------||
F||-----------------------------------------------------------------||
C||-7-7-7-7-7-7-7-7-----------------4-4-4-4-4-4-4-4-----------------||
G||-5-5-5-5-5-5-5-5-5-5-5-5-5-5-5-5-2-2-2-2-2-2-2-2-5-5-5-5-5-5-5-5-||
D||-----------------3-3-3-3-3-3-3-3-----------------3-3-3-3-3-3-3-3-||

  1st Bridge: clean
d||---------------------------------------------------------------||
A||---------------------------------------------------------------||
F||-----0------0--------0-------0---------------------------------||
C||---7------7--------9-------9-------4-0-----4-0-----4-0-----4-0-||
G||-5-------5------/7-------7-------2-------2---------------------||
D||-------------------------------------------------3------3------||

  2nd Bridge: clean
d||---------------------------------------------------------------||
A||---------------------------------------------------------------||
F||-----0------0--------0-------0---------------------------------||
C||---7------7--------9-------9-------4-0-----4-0-----2-0-----2-0-||
G||-5-------5------/7-------7-------2-------2---------------------||
D||-------------------------------------------------3------3------||

  Pre-Chorus: clean
d||-----------------------------------------------------------------
A||-----------------------------------------------------------------
F||-----------------------------------------------------------------
C||-7-7-7-7-7-7-7-7-9-9-9-9-9-9-9-9-4-4-4-4-4-4-4-4----------------- 
G||-5-5-5-5-5-5-5-5-7-7-7-7-7-7-7-7-2-2-2-2-2-2-2-2-5-5-5-5-5-5-5-5-
D||-------------------------------------------------3-3-3-3-3-3-3-3-

   -----------------------------------------------------------------||
   -----------------------------------------------------------------||
   -6-6-6-6-6-6-6-6-7-7-7-7-7-7-7-7-6-6-6-6-6-6-6-6-7-7-7-7-7-7-7-7-||
   -4-4-4-4-4-4-4-4-5-5-5-5-5-5-5-5-4-4-4-4-4-4-4-4-5-5-5-5-5-5-5-5-||
   -----------------------------------------------------------------||
   -----------------------------------------------------------------||

  Chorus: distortion
d||-----------------------------------------------------------------||
A||-----------------------------------------------------------------||
F||-7-7-7-7-7-7-7-7-9-9-9-9-9-9-9-9-4-4-4-4-4-4-4-4-----------------||
C||-7-7-7-7-7-7-7-7-9-9-9-9-9-9-9-9-4-4-4-4-4-4-4-4-5-5-5-5-5-5-5-5-||
G||-5-5-5-5-5-5-5-5-7-7-7-7-7-7-7-7-2-2-2-2-2-2-2-2-5-5-5-5-5-5-5-5-||
D||-------------------------------------------------3-3-3-3-3-3-3-3-||



  Interlude: clean 


d||----------------------||
A||----------------------||
F||-----0--0---0---0---0-||
C||---7------------------||
G||-5-----5---5---5---5--||
D||----------------------||

 during one bass line then 

d||-------||
A||-------||
F||-----7-|| repeat
C||---7---||
G||-5-----||
D||-------||

Tap to rate this tab
# A B C D E F G H I J K L M N O P Q R S T U V W X Y Z