Song name
# A B C D E F G H I J K L M N O P Q R S T U V W X Y Z

Blink 182 - Apple Shampoo tab

-----------------------------------------------------------------------------------------
Blink - Apple Shampoo
-----------------------------------------------------------------------------------------

Tabbed By Matt Shepard

Intro : x2
| ----------------------------- |
| ----------------------------- |
| --5--------------7777--10---- |
| --5--77--33--77--7777--10---- |
| --3--77--33--77--5555--8----- |
| -----55--11--55-------------- |

Riff 1 : x2
| ------------------------------------------ |
| ------------------------------------------ |
| --55555555-------------------------------- |
| --55555555--33333333--55555555--33333333-- |
| --33333333--33333333--55555555--33333333-- |
| ------------11111111--33333333--11111111-- |

Riff 2 : x2
| -------------------------------------------------------- |
| -------------------------------------------------------- |
| -------------------------------------------------------- |
| ----2------2------3------3------5------5------3------3-- |
| --3----3-3---------------------------------------------- |
| --------------1-1----1-1----3-3----3-3----1-1----1-1---- |

Riff 1 : x2
| ------------------------------------------ |
| ------------------------------------------ |
| --55555555-------------------------------- |
| --55555555--33333333--55555555--33333333-- |
| --33333333--33333333--55555555--33333333-- |
| ------------11111111--33333333--11111111-- |

Riff 2 : x2
| -------------------------------------------------------- |
| -------------------------------------------------------- |
| -------------------------------------------------------- |
| ----2------2------3------3------5------5------3------3-- |
| --3----3-3---------------------------------------------- |
| --------------1-1----1-1----3-3----3-3----1-1----1-1---- |

Riff 3 : x1
| ------------------------------------------------------------------------------------ |
| ------------------------------------------------------------------------------------ |
| ---------------------333333333333333333------------------77777777-1010101010101010-- |
| -777777777777777777--333333333333333333-7777777777777777-77777777-1010101010101010-- |
| -777777777777777777--111111111111111111-7777777777777777-55555555-8-8-8-8-8-8-8-8--- |
| -555555555555555555---------------------5555555555555555-----------------------------|

Riff 4 : 
| --------------------------------------------------------------------------------------|
| --------------------------------------------------------------------------------------|
| -5555555555555555------------------------------------5555555555555555-777777777777777-|
| -5555555555555555-5555555555555555-3333333333333333--5555555555555555-777777777777777-|
| -3333333333333333-5555555555555555-3333333333333333-3333333333333333--555555555555555-|
| ------------------3333333333333333-1111111111111111-----------------------------------|

| ----------------------------------------------- |
| ----------------------------------------------- |
| ----------------------------------------------- |
| --3333333333333333-55555555-77777777-99999999-- |
| --3333333333333333-55555555-77777777-99999999-- |
| --1111111111111111-33333333-55555555-77777777-- |

Riff 1 : x4
| ------------------------------------------ |
| ------------------------------------------ |
| --55555555-------------------------------- |
| --55555555--33333333--55555555--33333333-- |
| --33333333--33333333--55555555--33333333-- |
| ------------11111111--33333333--11111111-- |

Riff 3 : x1
| --------------------------------------------------------------------------------------|
| --------------------------------------------------------------------------------------|
| ---------------------333333333333333333--------------------77777777--1010101010101010-|
| -777777777777777777--333333333333333333--7777777777777777--77777777--1010101010101010-|
| -777777777777777777--111111111111111111--7777777777777777--55555555--8-8-8-8-8-8-8-8--|
| -555555555555555555----------------------5555555555555555-----------------------------|

riff 5 : 
| ----------------------------------------------------------------------- |
| ----------------------------------------------------------------------- |
| -------------------7777777777777777------------------------------------ |
| --5555555555555555-7777777777777777-3333333333333333-5555555555555555-- |
| --5555555555555555-5555555555555555-3333333333333333-5555555555555555-- |
| --3333333333333333------------------1111111111111111-3333333333333333-- |

| --------------------------------------------------------------------------------- |
| --------------------------------------------------------------------------------- |
| --7777777777777777-----------------------------------------------------55555555-- |
| --7777777777777777-3333333333333333-5555555555555555-77777777-99999999-55555555-- |
| --5555555555555555-3333333333333333-5555555555555555-77777777-99999999-33333333-- |
| -------------------1111111111111111-3333333333333333-55555555-77777777----------- |

Riff 1 : x4
| ------------------------------------------ |
| ------------------------------------------ |
| --55555555-------------------------------- |
| --55555555--33333333--55555555--33333333-- |
| --33333333--33333333--55555555--33333333-- |
| ------------11111111--33333333--11111111-- |

=========================================================================================

Tap to rate this tab
 
# A B C D E F G H I J K L M N O P Q R S T U V W X Y Z