Song name
# A B C D E F G H I J K L M N O P Q R S T U V W X Y Z

Blink 182 - Im Sorry tab

Help us improve GuitareTab! Take a short survey!
intro: (4x) 
| ----------------------------------------------------------------------- | 
| ----------------------------------------------------------------------- | 
| -------------------------------6--6------------------------------------ | 
| ----7--9--7--6-----------0--------------------------------------------- | 
| ----------------7--7--7-----7------------------------------------------ | 
| -5--------------------------------------------------------------------- | 

verse : Palm Mute x2
Don't bide your time.... 
| ---------------------------------------------------------------- | 
| ---------------------------------------------------------------- | 
| ---------------------------------------------------------------- | 
| -7---------------9-------7-----9------7------------------------- | 
| -5-x14---7-------7-x14---5-x8--7-x10--7------------------------- | 
| ---------5--x14-----------------------5------------------------- | 

interlude thingy : x2
| ---------------------------------------------------------- | 
| ---------------------------------------------------------- | 
| ---------------------------------------------------------- | 
| ---------------------------------------------------------- | 
| ---7-----7-----7-----7------7------7------7----7---------- | 
| -4---4-4----5-5--5-5---0--4---4-4----5--5--5-5---0-------- | 

Then This x2
| -------------------------------------------------------------- | 
| -------0-2------------0-2-----------0-2----------0-0---------- | 
| -2---2-----2----2---2-----2---2---2-----2--2-2-------2-1------ | 
| ---2--------------2-------------2--------------2-------------- | 
| -------------------------------------------------------------- | 
| -------------------------------------------------------------- | 

| ---------------------------------- | 
| ---------------------------------- | 
| ---------------777777777777------- | 
| -777777777777--777777777777------- | 
| -777777777777--555555555555------- | 
| -555555555555--------------------- | 

| --------------------------------- | 
| --------------------------------- | 
| ---------------777777--999999---- | 
| -999999999999--777777--999999---- | 
| -999999999999--555555--777777---- | 
| -777777777777-------------------- | 

verse : x3
| ------------------------------------ | 
| ------------------------------------ | 
| -999999--99999--777777--999999------ | 
| -777777--99999--777777--999999------ | 
| -000000--77777--555555--777777------ | 
| ------------------------------------ | 

chorus don't bide your time..... 
| ---------------------------------- | 
| ---------------------------------- | 
| -777777777777--------------------- | 
| -777777777777--77777777777-------- | 
| -555555555555--77777777777-------- | 
| ---------------55555555555-------- | 

| ------------------------------------------- | 
| ------------------------------------------- | 
| -9999999999---777777777777--play-2-more-x-- | 
| -9999999999---777777777777----------------- | 
| -7777777777---555555555555----------------- | 
| ------------------------------------------- | 

ending of chorus... do it once a----gain. 
| -------------------------------------------------- | 
| -------------------------------------------------- | 
| --------------------9----9----9-9-9-----9--------- | 
| --------------------9----9----9-9-9-----9---7----- | 
| --------------------7----7----7-7-7-----7---7----- | 
| --------------------------------------------5----- | 

bridge- I'm sorry. I'm sorry....... Play it Bunch of times 
| ---------------------------------------- | 
| ---------------------------------------- | 
| -666666--111111------------777777------- | 
| -777777--222222---444444---777777------- | 
| -777777--222222---444444---555555------- | 
| -555555-----------222222---------------- | 

ending- do it once a-------gain. 
| ------------------------------------------ | 
| ------------------------------------------ |
| -----9--9-----9-9-9-----9----------------- | 
| -----9--9-----9-9-9-----9----------------- | 
| -----7--7-----7-7-7-----7----------------- | 
| ------------------------------------------ | 
Related for Im Sorry tab