Song name
# A B C D E F G H I J K L M N O P Q R S T U V W X Y Z

Blink 182 - Easy Target Acoustic tab

intro/chorus
e-------------------|
b-------------------|
g-------------------|
d44444444-7777-2222-|
a44444444-7777-2222-|
e22222222-5555-0000-|

verse
e-----------------------------------------------------|
b-----------------------------------------------------|
g-----------------------------------------------------|
d11-11-11-11-11-11-11-11-11-11-11-11--999--11-11-11-7-|
a11-11-11-11-11-11-11-11-11-11-11-11--999--11-11-11-7-|
e-9--9--9--9--9--9--9--9--9--9--9--9--777---9--9--9-5-|

interlude
e-------------------|
b-------------------|
g77777777-----------|
d77777777-7777-2222-|
a55555555-7777-2222-|
e---------5555-0000-|

outro
e--------------------------|
b--------------------------|
g--------------------------|
d4-6-7-9-7-7-9-11-11--12-9-|
a4-6-7-9-7-7-9-11-11--12-9-|
e2-4-5-7-5-5-7--9--9--10-7-|

intro/chorus x4
verse x4
chorus x4
verse x2
chorus x2( you can play it also 4 times)
interlude x4
outro
Tap to rate this tab
 
# A B C D E F G H I J K L M N O P Q R S T U V W X Y Z