Song name
# A B C D E F G H I J K L M N O P Q R S T U V W X Y Z

Blink 182 - Violence tab

This is my first tab but I think it's nearly 100%.
Capo on 2nd Fret - all notes are relative.

Intro and outro riff is something like this:
Keep bending the E string back and forth
|-------------------------------|
|-------------------------------|
|-------------------------------|
|-------------------------------| x8
|----0--0--0----0--0-0-0-0--00--|
|----5--5--5----5--5-5-5-5--55--|
111111111111111111111111111111111111111111111111111111111111111111111111111111111111111111
Every so often you need to play:

|-------------|
|-------------|
|-------------|
|--7--7-7---7-|
|--0--0-0---0-|
|--5--5-5---5-|

on the last one it leads straight into these chords - listen to figure out timing:


|---------------------------------------------------------------|(-)
|---------------------------------------------------------------|(-)
|---------------------------------------------------------------|(-)
|-7777-77-9-9-9--9-9999-99-4-4-4--4-4444-44-6-6-6--6-6666-66(-)-|x2
|-0000-00-0-0-0--0-0000-00-0-0-0--0-0000-00-0-0-0--0-0000-00----|(-)
|-5555-55-7-7-7--7-7777-7702-2-2--2-2222-22-4-4-4--4-4444-44----|(0~)

On the second time the first chord changes to:
(this change only happens in the intro)

|-----------------------------|
|-----------------------------|
|-----------------------------|
|-11-11-11---11-11111111-1111-|
|-0--0--0----0--0-0-0-0--0-0--|
|-9--9--9----9--9-9-9-9--9-9--|

This bit ends on an open E.

Verse:

|--
|--
|--
|-7~
|-0~
|-5~
Repeated at the start of each of these lines:

6 bottles went down the drain, one hours a waste of time,
I'd ask if you feel the same, still pushin that chance to try,
your breath in this cool room chill, long hair that blows side to side,
you speak and make time stand still, and each time you walk right on by

Chorus:

|------------------------------------------------------------------------|(-)
|------------------------------------------------------------------------|(-)
|------------------------------------------------------------------------|(-)
|-7-7-7--7-7777-77-9-9-9--9-9999-99-4-4-4--4-4444-44-6-6-6--6-6666-66(-)-|x2
|-0-0-0--0-0000-00-0-0-0--0-0000-00-0-0-0--0-0000-00-0-0-0--0-0000-00----|(-)
|-5-5-5--5-5555-55-7-7-7--7-7777-7702-2-2--2-2222-22-4-4-4--4-4444-44----|(0~)
    Like violence     you have me,        forever,       and after
    Like violence     you kill me,         forever       and after


Verse:

|--
|--
|--
|-7~
|-0~
|-5~
Repeated at the start of each of these lines:

Can't count all the eyes that stare, can't count all the things they see,
she kills with no life to spare, just victims are left to bleed,
one drink and the pain goes down, soft shadows lay by her feet,
lay soft and slowly drown, lay still as you fall asleep. Fall asleep.

Chorus:

|---------------------------------------------------------------------|
|---------------------------------------------------------------------|
|---------------------------------------------------------------------|
|-7-7-7--7-7777-77-9-9-9--9-9999-99-4-4-4--4-4444-44-6-6-6--6-6666-66-|
|-0-0-0--0-0000-00-0-0-0--0-0000-00-0-0-0--0-0000-00-0-0-0--0-0000-00-|
|-5-5-5--5-5555-55-7-7-7--7-7777-7702-2-2--2-2222-22-4-4-4--4-4444-44-|
    Like violence     you have me,        forever,       and after
    Like violence     you kill me,         forever       and after

Interlude:

I've used the live version for this. It's quite hard to hear, it's mainly bass but he 
sort of plays around with the 507--- chord, putting in this throughout:

|------------------------------------|
|------------------------------------|
|------------------------------------|
|-7-77-777-7-77-777-7-77-777---------|
|-0-00-000-0-00-000-0-00-000--7-0----|
|-5-55-555-5-55-555-5-55-555-----4-5-|

Chorus:

|----------------------------------------------------------------------|
|----------------------------------------------------------------------|
|----------------------------------------------------------------------|
|-7-7-7--7-7777-77-9-9-9--9-9999-99-4-4-4--4-4444-44-6-6-6--6-6666-66--| x4
|-0-0-0--0-0000-00-0-0-0--0-0000-00-0-0-0--0-0000-00-0-0-0--0-0000-00--|
|-5-5-5--5-5555-55-7-7-7--7-7777-7702-2-2--2-2222-22-4-4-4--4-4444-44--|
    Like violence     you have me,        forever,       and after
    Like violence     you kill me,         forever       and after

Outro:
Keep bending the E string back and forth
|------------------------------|
|------------------------------|
|------------------------------|
|------------------------------|
|----0--0--0----0--0-0-0-0--00-|
|----5--5--5----5--5-5-5-5--55-|
Tap to rate this tab
 
# A B C D E F G H I J K L M N O P Q R S T U V W X Y Z