Song name
# A B C D E F G H I J K L M N O P Q R S T U V W X Y Z

Blink 182 - Happy Holidays You Bastards tab

_________________________________________________________________
BLINK-182 >> TAKE OFF YOUR PANTS AND JACKET
HAPPY HOLIDAYS, YOU BASTARD
TABBED BY: ToRK AKA GuiTAr RIfFmAN
_________________________________________________________________

Verse 1: “Its Christmas Eve and I’ve only wrapped two fuckin’ presents ..”
e --------------------------------------------------
B --------------------------------------------------
G --------------------------------------------------
D --99999999-44444444-99999999-44444444--66666-22222
A --99999999-44444444-99999999-44444444--66666-22222
E --77777777-22222222-77777777-22222222--44444-00000

“And I will never talk to you again”
e -----------------------------
B -----------------------------
G -----------------------------
D -9999-44-66-22---------------
A -9999-44-66-22---------------
E -7777-22-44-00---------------

Chorus: ”Unless your dad will suck me off..” 
e -----------------------------
B -----------------------------
G -----------------------------
D -9999-44-66-22222------------
A -9999-44-66-22222------------
E -7777-22-44-00000------------

Verse 2: “ its labor day and my grandpa just ate 7 fuckin’ hotdogs”

e --------------------------------------------------
B --------------------------------------------------
G --------------------------------------------------
D --99999999-44444444-99999999-44444444--66666-22222
A --99999999-44444444-99999999-44444444--66666-22222
E --77777777-22222222-77777777-22222222--44444-00000

Chorus: ”Unless your dad will suck me off..” 
e -----------------------------
B -----------------------------
G -----------------------------
D -9999-44-66-22222------------
A -9999-44-66-22222------------
E -7777-22-44-00000------------




END ON B
THIS IS ONE OF THE EASIEST TABS I HAVE SEEN. SEND ANY GOOD COMMENTS TO eved05@stadvids.co.za.

BLINK RULE!!

.. Later DUDES ..

ToRK
Tap to rate this tab
# A B C D E F G H I J K L M N O P Q R S T U V W X Y Z