Guitaretab - guitar tabs
Song name
# A B C D E F G H I J K L M N O P Q R S T U V W X Y Z

Blink 182 - Fuck A Dog tab

-------------------------------------------------------------------------------
			     FUCK A DOG - Blink 182
-------------------------------------------------------------------------------
chrisarrowsmith@gmail.com

It seems no one has yet tabbed the full version of this song. So here it is.
It is 100% correct

Tuning:Standard

Intro
e|----------------------------------|
B|----------------------------------|
G|-----4----------------------------|  (x2)
D|-------5---5---5-----7------------|
A|---5-----5---3---3/5--------------|
E|----------------------------------|

     (0:06)
e|----------------------------------|
B|----------------------------------|
G|-----4----------------------------|  (x1)
D|-------5-5-5-5-5-5-5-5---7--------|
A|---5-------------------5----------|
E|----------------------------------|

e|----------------------------------|
B|----------------------------------|
G|-----4----------------------------|  (x12)
D|-------5---5---5-----7------------|
A|---5-----5---3---3/5--------------|
E|----------------------------------|


     (0:41)
e|----------------------------------|
B|----------------------------------|
G|-----4----------------------------|  (x1)
D|-------5---5---5-----7------------|
A|---5-----5---3---3/5--------------|
E|----------------------------------|

e|----------------------------------|
B|-----4----------------------------|
G|---5---5---5---5-----7------------|  (x1)
D|---------5---3---3/5--------------|
A|----------------------------------|
E|----------------------------------|
[ Tab from: http://www.guitaretab.com/b/blink-182/28138.html ]
e|----------------------------------|
B|----------------------------------|
G|-----4----------------------------|  (x2)
D|-------5---5---5-----7------------|
A|---5-----5---3---3/5--------------|
E|----------------------------------|

e|----------------------------------|
B|----------------------------------|
G|-----4----------------------4-----|  (x1)
D|-------5---5---5-----7------5-----|
A|---5-----5---3---3/5--------5-----|
E|----------------------------------|


     (1:00)
e|----------------------------------|
B|----------------------------------|
G|----------------------------------|  (x1)
D|-----5-----7----------------------|
A|---3---3/5------------------------|
E|----------------------------------|


    (1:02)
e|----------------------------------|
B|----------------------------------|
G|-----4----------------------------|  (x2)
D|-------5---5---5-----7------------|
A|---5-----5---3---3/5--------------|
E|----------------------------------|

e|----------------------------------|
B|----------------------------------|
G|---4------------------------------|  (x1)
D|---5------------------------------|
A|---5------------------------------|
E|----------------------------------|

e|----------------------------------|
B|----------------------------------|
G|-----4----------------------------|  (x2)
D|-------5---5---5-----7--5---------|
A|---5-----5---3---3/5--------------|
E|----------------------------------|

e|----------------------------------|
B|-----4----------------------------|
G|---5---5---5---5-----7------------|  (x1)
D|---------5---3---3/5--------------|
A|----------------------------------|
E|----------------------------------|


| /  slide up
| \  slide down
| h  hammer-on
| p  pull-off
| ~  vibrato
| +  harmonic
| x  Mute note
===============================================================================
Related for Fuck A Dog tab
Fuck A Dog chords by Blink 182