Song name
# A B C D E F G H I J K L M N O P Q R S T U V W X Y Z

Blink 182 - Shut Up tab

-------------------------------------------------------------------------------
			     Blink-182 Shut Up
-------------------------------------------------------------------------------

e|55555555|
B|xxxxxxxx|
G|22222222|
D|--------|
A|--------|
E|--------|

e|------------------------------------------------|
B|-------5-----------5-----------5-----------5----|
G|----2-----2-----2-----2-----2-----2-----2-----2-|  x2
D|-------------------------------------0----------|
A|-0-----------0-----------4----------------------|
E|------------------------------------------------|

e|-----------------------|
B|-------5-----------5---|
G|----2-----2-----2-----2|  x2
D|-------------0---------|
A|-4---------------------|
E|-----------------------|

e|---------------------------------------------------------|
B|---------------------------------------------------------|
G|---------------------------------------------------------|  x2
D|---------------------------------------------------------|
A|-0--0-0-0--0-0-0--0-0-0--0-0--4--4-4-4--4-4-5--5-5-5--5-5|
E|---------------------------------------------------------|

e|----------------------------------------|
B|----------------------------------------|
G|-------------------------/14-14141414---|  x2
D|-12-1212121212--7-7777----x-x-x-x-x--14|
A|-12-1212121212--7-7777---/12-12121212-x-|
E|-10-1010101010--5-5555-0--------------12|

e|----------------------------------------------------|
B|----------------------------------------------------|
G|----------------------------------------------------|
D|-99999999-1212121212121212-99999999-1212121212121212|
A|-99999999-1212121212121212-99999999-1212121212121212|
E|-77777777-1010101010101010-77777777-1010101010101010|

e|--------------------------------------|
B|--------------------------------------|
G|-22222222-6666-7777-22222222-6666-7777|  x2
D|-22222222-6666-7777-22222222-6666-7777|
A|-00000000-4444-5555-00000000-4444-5555|
E|--------------------------------------|

e|----------------------------------------|
B|----------------------------------------|
G|-------------------------/14-14141414---|  x2
D|-12-1212121212--7-7777----x-x-x-x-x--14|
A|-12-1212121212--7-7777---/12-12121212-x-|
E|-10-1010101010--5-5555-0--------------12|

e|----------------------------------------------------|
B|----------------------------------------------------|
G|----------------------------------------------------|
D|-99999999-1212121212121212-99999999-1212121212121212|
A|-99999999-1212121212121212-99999999-1212121212121212|
E|-77777777-1010101010101010-77777777-1010101010101010|
 Clean
e|00000000-0000-0000|
B|xxxxxxxx-xxxx-xxxx|
G|99999999-1111-7777|  x6
D|xxxxxxxx-xxxx-xxxx|
A|77777777-9999-5555|
E|------------------|

  Distorted
e|---------------------------------------------------------------------------|
B|---------------------------------------------------------------------------|
G|---------------------------------------------------------------------------|
D|-14141414141414141414141414141414-13131313131313131111111111111111/--------|
A|-x-x-x-x-x-x-x-x-x-x-x-x-x-x-x-x--x-x-x-x-x-x-x-x--x-x-x-x-x-x-x-x---------|
E|-12121212121212121212121212121212-1111111111111111-9-9-9-9-9-9-9-9/--------|

e|---------------------------------------------------------------------------|
B|---------------------------------------------------------------------------|
G|-/18181818181818181818181818181818-16161616161616161414141414141414--------|
D|--x-x-x-x-x-x-x-x-x-x-x-x-x-x-x-x--x-x-x-x-x-x-x-x-x-x-x-x-x-x-x-x---------|
A|-/16161616161616161616161616161616-14141414141414141212121212121212--------|
E|---------------------------------------------------------------------------|

e|---------------------------------------------------------------------------|
B|---------------------------------------------------------------------------|
G|-14141414141414141414141414141414-13131313131313131111111111111111---------|
D|-x-x-x-x-x-x-x-x-x-x-x-x-x-x-x-x--x-x-x-x-x-x-x-x--x-x-x-x-x-x-x-x---------|
A|-12121212121212121212121212121212-1111111111111111-9-9-9-9-9-9-9-9---------|
E|---------------------------------------------------------------------------|

e|---------------------------------------------------------------------------|
B|---------------------------------------------------------------------------|
G|---------------------------------------------------------------------------|
D|-18181818181818181818181818181818-16161616161616161919191919191919---------|
A|-x-x-x-x-x-x-x-x-x-x-x-x-x-x-x-x--x-x-x-x-x-x-x-x-x-x-x-x-x-x-x-x----------|
E|-16161616161616161616161616161616-14141414141414141717171717171717---------|


e|----------------------------------------|
B|----------------------------------------|
G|-------------------------/14-14141414---|  x2
D|-12-1212121212--7-7777----x-x-x-x-x--14|
A|-12-1212121212--7-7777---/12-12121212-x-|
E|-10-1010101010--5-5555-0--------------12|

e|----------------------------------------------------|
B|----------------------------------------------------|
G|----------------------------------------------------|
D|-99999999-1212121212121212-99999999-1212121212121212|
A|-99999999-1212121212121212-99999999-1212121212121212|
E|-77777777-1010101010101010-77777777-1010101010101010|

e|------------------------------------------------|
B|-------5-----------5-----------5-----------5----|
G|----2-----2-----2-----2-----2-----2-----2-----2-|  x4
D|-------------------------------------0----------|
A|-0-----------0-----------4----------------------|
E|------------------------------------------------|

e|---|
B|---|
G|---|
D|---|
A|-0-|
E|---|
Tap to rate this tab
 
# A B C D E F G H I J K L M N O P Q R S T U V W X Y Z