Song name
# A B C D E F G H I J K L M N O P Q R S T U V W X Y Z

Blink 182 - Mothers Day tab

                                MOTHER'S DAY
                            As recorded by Blink 182
               (From the 2001 Album TAKE OF YOUR PANTS AND JACKET)

Words by Tom Delonge And Mark Hoppus

Music by Blink 182
Arranged by Blink 182
Transcribed by Donkey Fly

Tabbed this on power tab editor and the chorus sounds pretty close but may be hard for
you to play if your not Advanced or very good. Good Luck and Enjoy.

 Intro
  Fast Rock Q=180
 4/4
   Gtr I
                PM|   PM|         PM|   PM|
|---------||------------------|-----------------|
|---------||o-----------------|-----------------|
|---------||------------------|-----------------|
|---------||--2-----2-----2-2-|-2-----2-----2-2-|
|---------||o-2-----2-----2-2-|-2-----2-----2-2-|
|---------||--0-0-0-0-0-0-0-0-|-0-0-0-0-0-0-0-0-|


    PM|   PM|
|-----------------|--------------------||
|-----------------|-------------------o||
|-----------------|--------------------||
|-2-----2-----2-2-|-5-5-5-5\4-4\3-3----||
|-2-----2-----2-2-|-5-5-5-5\4-4\3-3---o||
|-0-0-0-0-0-0-0-0-|-3-3-3-3\2-2\1-1----||


   Verse 1
      PM|   PM|         PM|   PM|         PM|   PM|
||------------------|-----------------|-----------------|-------------------||
||o-----------------|-----------------|-----------------|------------------o||
||------------------|-----------------|-----------------|-------------------||
||--2-----2-----2-2-|-2-----2-----2-2-|-2-----2-----2-2-|-5-5-5-5\4-4\3-3---||
||o-2-----2-----2-2-|-2-----2-----2-2-|-2-----2-----2-2-|-5-5-5-5\4-4\3-3--o||
||--0-0-0-0-0-0-0-0-|-0-0-0-0-0-0-0-0-|-0-0-0-0-0-0-0-0-|-3-3-3-3\2-2\1-1---||


   Chorus 1
    Slower Q=120
||-----0-3-0--3-3-|-(3)-0-3-0-------3-|-3--0-3-0-3-----|-2-(2)-2-2-2---2-2---||
||o-----------3-3-|-(3)---3---3---3-3-|-x--------x-3---|-3-(3)-3-x-3-3-3-3--o||
||--0----0-0--0-0-|-(0)-x-0---0-x-0-0-|-0--x---0-0-0-0-|-2-(2)-2-2-x---2-2---||
||--2--2-2-2----2-|-(2)-2-2---2-2-2---|-0--0-0-0-0-0-0-|-0-(0)---0-----0-0---||
||o-2--2---2----3-|-(3)-3-----3-3-3---|-2--2-2-2-2---2-|--------------------o||
||--0--x----------|-------------------|-3--3-x-3-----3-|---------------------||


||-----0-3-3--3-3-|-(3)----3-------3-|
||o----x-3-3--3-3-|-(3)----3-3---3-3-|
||--0--x-0-0--0-0-|-(0)-x--0-0-x-0-0-|
||--2--2-2-2----2-|-(2)-2----2-2-2---|
||o-2--2---2----3-|-(3)-3----3-3-3---|
||--0--0---0------|------------------|


                   1.                   2.
|-3--------3-----|-2-(2)------2---2--||-2----|
|-x----3-3-x-3---|-3--3-----3-3-3-3-o||-3----|
|-0--x-0-0-0-0-0-|-2-(2)-2----2-2-2--||-2----|
|-0--0-0-0-0-0-0-|-0-(0)-0----0-0----||-0----|
|-2--2---2-2---2-|------------------o||------|
|-3--3---------3-|-------------------||------|


   Verse 2
    Faster Q=180
      PM|   PM|         PM|   PM|         PM|   PM|
||------------------|-----------------|-----------------|-------------------||
||o-----------------|-----------------|-----------------|------------------o||
||------------------|-----------------|-----------------|-------------------||
||--2-----2-----2-2-|-2-----2-----2-2-|-2-----2-----2-2-|-5-5-5-5\4-4\3-3---||
||o-2-----2-----2-2-|-2-----2-----2-2-|-2-----2-----2-2-|-5-5-5-5\4-4\3-3--o||
||--0-0-0-0-0-0-0-0-|-0-0-0-0-0-0-0-0-|-0-0-0-0-0-0-0-0-|-3-3-3-3\2-2\1-1---||


   Out Chorus
    Slower Q=120
||-----0-3-0--3-3-|-(3)-0-3-0-------3-|-3--0-3-0-3-----|-2-(2)-2-2-2---2-2---||
||o-----------3-3-|-(3)---3---3---3-3-|-x--------x-3---|-3-(3)-3-x-3-3-3-3--o||
||--0----0-0--0-0-|-(0)-x-0---0-x-0-0-|-0--x---0-0-0-0-|-2-(2)-2-2-x---2-2---||
||--2--2-2-2----2-|-(2)-2-2---2-2-2---|-0--0-0-0-0-0-0-|-0-(0)---0-----0-0---||
||o-2--2---2----3-|-(3)-3-----3-3-3---|-2--2-2-2-2---2-|--------------------o||
||--0--x----------|-------------------|-3--3-x-3-----3-|---------------------||


                                                           1.
||--------0-3-3--3-3-|-(3)----3-------3-|-3--------3-----|-2-(2)----2---2-----||
||o----3--x-3-3--3-3-|-(3)----3-3---3-3-|-x----3-3-x-3---|-3--3-----3-3-3----o||
||--0-(0)-x-0-0--0-0-|-(0)-x--0-0-x-0-0-|-0--x-0-0-0-0-0-|-2-(2)-2--2-2-2-2---||
||--2-(2)-2-2-2----2-|-(2)-2----2-2-2---|-0--0-0-0-0-0-0-|-0-(0)-0--0-0---0---||
||o-2-(2)-2---2----3-|-(3)-3----3-3-3---|-2--2---2-2---2-|-------------------o||
||--0-(0)-0---0------|------------------|-3--3---------3-|--------------------||


  2. (Slows Down)
|-2-(2)-2--2-2-2-2-|-(2)--------|-^3--------|-(3)----*|
|-3--3--3--3-3-3-3-|-(3)--------|-^3--------|-(3)----*|
|-2-(2)-2--2-2-2-2-|-(2)--------|-^0--------|-(0)----*|
|-0-(0)-x--0-0---0-|-(0)--------|-^2--------|-(2)----*|
|------------------|------------|-^2--------|-(2)----*|
|------------------|------------|-----------|--------*|
Tap to rate this tab
# A B C D E F G H I J K L M N O P Q R S T U V W X Y Z