Guitaretab - guitar tabs
Song name
# A B C D E F G H I J K L M N O P Q R S T U V W X Y Z

Blink 182 - Lemmings tab

Lemmings
Tabbed by SJ (kirei_008@hotmail.com)

Intro
----------------------
----------------------
----------------------
------4--1------2--1--
---2---------2--------
----------------------

Second Riff
----------------------------------
----------------------------------
----------------------------------
--444------444--------------------
--222-222--222--666--444--666--2--
------000-------444--222--444--0--

Verse
	Play Whole Thing Twice
----------------------
----------------------	
----------------------
------4--1------2--1--	3	
---2---------2--------
----------------------

-------------------
-------------------
-----------999999--
-------------------
---222222--777777--
---000000----------
[ Tab from: http://www.guitaretab.com/b/blink-182/28141.html ]
Chorus
----------------------------
----------------------------
-----8-9----8-9---8-9-------		2
---9------9-----9------9----
----------------------------
----------------------------

Solo
	Palm Mute it occasionally, mostly the notes on the
	D string
--------------------------------------------------------
-------------------------------------------------4-5-4--
--4----3----4----4----3-----4---4----3-4-------4--------		2
----44---44---4----44----44---4---44------2--2----------
--------------------------------------------------------
--------------------------------------------------------

Ending Riff
------------------------------------------
------------------------------------------
------------------------------------------
--44444444--66666666------------77777777--
--22222222--44444444--66666666--55555555--
----------------------44444444------------
Related for Lemmings tab