Song name
# A B C D E F G H I J K L M N O P Q R S T U V W X Y Z

Blink 182 - 13 Miles tab

----------------------------------------------------------------------------
                             Blink 182 - 13 Miles
                              
----------------------------------------------------------------------------
tabbed by: JesseLaceyIsGod
 ilikesubs123@aol.com


Tom (Guitar) - eBGDAE(standard)
Mark (Bass) - GDAE(standard)



Tom:
e|-----------------|-----------------|-----------------|-----------------|
B|-----------------|-----------------|-----------------|-----------------|
G|-----------------|-4---4-4-4-4-4-4-|-2---2-2-2-2-2-2-|-2---2-2-2-2-2-2-|
D|-2---2-2-2-2-2-2-|-4---4-4-4-4-4-4-|-2---2-2-2-2-2-2-|-2---2-2-2-2-2-2-|
A|-2---2-2-2-2-2-2-|-2---2-2-2-2-2-2-|-0---0-0-0-0-0-0-|-0---0-0-0-0-0-0-|
E|-0---0-0-0-0-0-0-|-----------------|-----------------|-----------------|
Mark:
G|-----------------|-----------------|-----------------|-----------------|
D|-----------------|-----------------|-----------------|-----------------|
A|-----------------|-2---2---2---2---|-0---0---0---0---|-0---------------|
E|-0---0---0---0---|-----------------|-----------------|-----------------|



Tom:
e|-----------------|-----------------|-----------------|-----------------|
B|-----------------|-----------------|-----------------|-----------------|
G|-----------------|-4---4-4-4-4-4-4-|-2---2-2-2-2-2-2-|-2-2-2-2-2-2-2---|
D|-2---2-2-2-2-2-2-|-4---4-4-4-4-4-4-|-2---2-2-2-2-2-2-|-2-2-2-2-2-2-2-2-|
A|-2---2-2-2-2-2-2-|-2---2-2-2-2-2-2-|-0---0-0-0-0-0-0-|-0-0-0-0-0-0-0-2-|
E|-0---0-0-0-0-0-0-|-----------------|-----------------|---------------0-|
Mark:
G|-----------------|-----------------|-----------------|-----------------|
D|-----------------|-----------------|-----------------|-----------------|
A|-----------------|-2---2---2---2---|-0---0---0---0---|-0---------0-0-0-|
E|-0---0---0---0---|-----------------|-----------------|-----------------|



Tom:
e|-----------------|-----------------|-----------------|-----------------|
B|-----------------|-----------------|-----------------|-----------------|
G|---------------4-|---4-4-4-4-4-4-2-|---2-2-2-2-2-2-2-|---2-2-2-2-2-2---|
D|---2-2-2-2-2-2-4-|---4-4-4-4-4-4-2-|---2-2-2-2-2-2-2-|---2-2-2-2-2-2---|
A|---2-2-2-2-2-2-2-|---2-2-2-2-2-2-0-|---0-0-0-0-0-0-0-|---0-0-0-0-0-0---|
E|---0-0-0-0-0-0---|-----------------|-----------------|-----------------|
Mark:
G|-0---------------|-----------------|-----------------|-----------------|
D|-----------------|-----------------|-----------------|-----------------|
A|-----------------|-2---2---2---2---|-0---0---0---0---|-0---------------|
E|-----0---0---0---|-----------------|-----------------|-----------------|



Tom:
e|-----------------|-----------------|-----------------|-----------------|
B|-----------------|-----------------|-----------------|-----------------|
G|-----------------|-4---4-4-4-4-4-4-|-2---2-2-2-2-2-2-|-2---2-2-2-2-2-2-|
D|-2---2-2-2-2-2-2-|-4---4-4-4-4-4-4-|-2---2-2-2-2-2-2-|-2---2-2-2-2-2-2-|
A|-2---2-2-2-2-2-2-|-2---2-2-2-2-2-2-|-0---0-0-0-0-0-0-|-0---0-0-0-0-0-0-|
E|-0---0-0-0-0-0-0-|-----------------|-----------------|-----------------|
Mark:
G|-----------------|-----------------|-----------------|-----------------|
D|-2---------------|-----------------|-----------------|-----------------|
A|-2---------------|-2---2---2---2---|-0---0---0---0---|-0---------------|
E|-0---0---0---0---|-----------------|-----------------|-----------------|5x




Tom:
e|-----------------|-----------------|-----------------|-----------------|
B|-----------------|-----------------|-----------------|-----------------|
G|-----------------|-4---4-4-4-4-4-4-|-2---2-2-2-2-2-2-|-2~--------------|
D|-2---2-2-2-2-2-2-|-4---4-4-4-4-4-4-|-2---2-2-2-2-2-2-|-2~--------------|
A|-2---2-2-2-2-2-2-|-2---2-2-2-2-2-2-|-0---0-0-0-0-0-0-|-0~--------------|
E|-0---0-0-0-0-0-0-|-----------------|-----------------|-----------------|
Mark:
G|-----------------|-----------------|-----------------|-----------------|
D|-2---------------|-----------------|-----------------|-----------------|
A|-2---------------|-2---2---2---2---|-0---0---0---0---|-0---------------|
E|-0---0---0---0---|-----------------|-----------------|-----------------|



Tom:
e|-----------------|
B|-----------------|
G|-----------------|
D|-2~~-------------|
A|-2~~-------------|
E|-0~~-------------|
Mark:
G|-----------------|
D|-2---------------|
A|-2---------------|
E|-----------------|





very easy :]



Tap to rate this tab
# A B C D E F G H I J K L M N O P Q R S T U V W X Y Z