Song name
# A B C D E F G H I J K L M N O P Q R S T U V W X Y Z

Blink 182 - Life Is So Boring tab

Blink 182, Life's so Boring.
 Tabbed by Ryan, Blink180tw.
  
Intro 8x
E|------------|
B|------------|
G|------------|
D|-----5---5--|
A|-3-3---3----|
E|------------|

Chords 4x
E|--------------------|
B|--------------------|
G|-----------3----4---|
D|-4----6----3----4---|
A|-4----6----1----2---|
E|-2----4-------------|

Intro 8x
Chords 2x
Riff 8x
E|--------------|
B|---3---3-1-0--|
G|-0---0--------|
D|--------------|
A|--------------|
E|--------------|

Intro 10x
Chords 2x
Riff 8x

E|----|
B|----|
G|----|
D|-4--|
A|-4--|
E|-2--|

Intro 16x

E|----|
B|----|
G|----|
D|----|
A|----|
E|-5--|

This is a unrealeased instrumental song. Its a cool song. Listen to it to know when to play. 
:: Ultimate Guitar Archive :: 
http://www.ultimate-guitar.com 



Tap to rate this tab
# A B C D E F G H I J K L M N O P Q R S T U V W X Y Z