Blink 182 - Up All Night tab

----------------------------------------------------------------------------
		          	                  Blink-182 - Up All Night
----------------------------------------------------------------------------
Tabbed by: tr3nt(aka the mastermind most of this),elloel, and odinmisawa
Email:guitarguy0013@yahoo.com

Tuning:Standard


A little info:
This song was released at 5:00 pm on Thursday, July 14th, 2011. It was the first released song 
by the band after their 4 year hiatus, making it their first song in 6 years.

Intro
e|----------------------------------|
B|----------------------------------|
G|----------------------------------|   2x
D|----------------------------------|
A|-------------------------55555555-|
E|-777766665555555544444444---------|

e|----------------------------------|
B|----------------------------------|
G|----------------------------------|   1x
D|----------------------------------|
A|----------------------------------|
E|-77776666555555554444444433333333-|

Verse
e|-----------------|
B------------------|
G|-----------------|   16x
D|-7-7-7-7-7-7-7-7-|
A|-7-7-7-7-7-7-7-7-|
E|-5-5-5-5-5-5-5-5-|

Pre-Chorus
e|-------------------------------------------------------|
B|-------------------------------------------------------|
G|-------------------------------------------------------|   1x
D|-4444444444444444--6666666666666666--7777777777777777--|
A|-4444444444444444--6666666666666666--7777777777777777--|
E|-2222222222222222--4444444444444444--5555555555555555--|

e|-------------------------------------------------------|
B|-------------------------------------------------------|
G|-------------------------------------7777777777777777--|   1x
D|-2222222222222222--4444444444444444--7777777777777777--|
A|-2222222222222222--4444444444444444--5555555555555555--|
E|-0000000000000000--2222222222222222--------------------|

Chorus

Rhythm
e|---------------------------------------|
B|---------------------------------------|
G|-----------------------------77777777--|  2x
D|-7777777777777777--22222222--77777777--|
A|-7777777777777777--22222222--55555555--|
E|-5555555555555555--00000000------------|
		
10 not 1 0, etc.
Lead
e|-----------------------------------------------------------------|
B|-----------------------------------------------------------------|
G|-----------------------------------------------------------------|  x2
D|-777-999-111111-999-1111-1212-999-111111-121212-111111-1212-1414-|
A|-777-999-111111-999-1111-1212-999-111111-121212-111111-1212-1414-|
E|-555-777-9-9-9--777-9-9--1010-777-9-9-9--101010-9-9-9--1010-1212-|

Riff
e|-----------------------|
B|-----------------------|
G|-------9---------------|  1x
D|-------9---------------|
A|-------7---------------|
E|-5-4-0---5-4-0-776655--|

e|--------------------------|
B|--------------------------|
G|-------9------------------| 3x
D|-------9-------8/999/8877-|
A|-------7-------8/999/8877-|
E|-5-4-0---5-4-0-6/777/6655-|

Verse
e|-----------------|
B------------------|
G|-----------------|   16x
D|-7-7-7-7-7-7-7-7-|
A|-7-7-7-7-7-7-7-7-|
E|-5-5-5-5-5-5-5-5-|

Pre-Chorus
e|-------------------------------------------------------|
B|-------------------------------------------------------|
G|-------------------------------------------------------|   1x
D|-4444444444444444--6666666666666666--7777777777777777--|
A|-4444444444444444--6666666666666666--7777777777777777--|
E|-2222222222222222--4444444444444444--5555555555555555--|

e|-------------------------------------------------------|
B|-------------------------------------------------------|
G|-------------------------------------7777777777777777--|   1x
D|-2222222222222222--4444444444444444--7777777777777777--|
A|-2222222222222222--4444444444444444--5555555555555555--|
E|-0000000000000000--2222222222222222--------------------|

Rhythm
e|---------------------------------------|
B|---------------------------------------|
G|-----------------------------77777777--|  4x
D|-7777777777777777--22222222--77777777--|
A|-7777777777777777--22222222--55555555--|
E|-5555555555555555--00000000------------|
		
10 not 1 0, etc.
Lead
e|-----------------------------------------------------------------|
B|-----------------------------------------------------------------|
G|-----------------------------------------------------------------|  4x
D|-777-999-111111-999-1111-1212-999-111111-121212-111111-1212-1414-|
A|-777-999-111111-999-1111-1212-999-111111-121212-111111-1212-1414-|
E|-555-777-9-9-9--777-9-9--1010-777-9-9-9--101010-9-9-9--1010-1212-|

Both
e|-----|
B|-----|
G|-----|
D|-7~~-|
A|-7~~-|
E|-5~~-|

Riff
e|---------------------------|
B|---------------------------|
G|-------9-------------------|  8x
D|-------9--------8/999/8877-|
A|-------7--------8/999/8877-|
E|-5-4-0---5-4-0--6/777/6655-|


Tap to rate this tab
 
# A B C D E F G H I J K L M N O P Q R S T U V W X Y Z