Song name
# A B C D E F G H I J K L M N O P Q R S T U V W X Y Z

Blink 182 - Up All Night tab

-----------------------------------------------------------------------------
			     Up All Night - Blink-182
-----------------------------------------------------------------------------
Tabbed by: Ronald Karl
Email: ronnyboy57@gmail.com


One of my first tabs guys - please enjoy and feel free to email me with questions. 
Tabbed by ear from the radio rip on KROQ.
Tuning: Standard

Intro Riff:
e|--------------------------------------------------------------------------|
B|--------------------------------------------------------------------------|
G|--------------------------------------------------------------------------|
D|--------------------------------------------------------------------------| x3
A|--------------------------------------------------------------------------|
E|--7-7-7-7-6-6-6-6-5-5-5-5-5-5-5-5-4-4-4-4-4-4-4-4-10-10-10-10-10-10-10-10-|

Intro Part 2/Heavy Guitar Riff/Pre-Verse
e|----------------------------------|
B|----------------------------------|
G|----------------------------------|
D|----------------------------------| x 4
A|-------7-7-7----------------------|
E|-5-4-0-------5-4-0-6-7-7-6-6-5-5--|

Verse:
e|-------|
B|-------|
G|-------|
D|---7---| Played continually through verse - listen to song for strumming
A|---7---|
E|---5---|

Pre-Chorus (Palm-Muted):
e|-------------------------------------------|
B|-------------------------------------------|
G|------------------------------------7------|
D|-4------6------7------9------4------7 x16--|
A|-4 x16--6 x16--7 x16--9 x16--4 x16--5------|
E|-2------4------5------7------2------*------|
   *      *      *      *      *

Chorus: (Repeat Twice)
e|-------------------------------------------------------------------------------------|
B|-------------------------------------------------------------------------------------|
G|-------------------------------------------------------------------------------------|
D|-7-7-7-9-9-9-11-11-11-9-9-9-11-11-12-12-9-9-9-11-11-11-12-12-12-11-11-11-12-12-11-11-|
A|-x-x-x-x-x-x-x--x--x--x-x-x-x--x--x--x--x-x-x-x--x--x--x--x--x--x--x--x--x--x--x--x--|
E|-5-5-5-7-7-7-9--9--9--7-7-7-9--9--10-10-7-7-7-9--9--9--10-10-10-9--9--9--10-10-9--9--|


Intro Part 2/Heavy Guitar Riff/Pre-Verse x 4

Verse (Played exactly the same - Bass is slightly louder for this verse)

Pre-Chorus (Palm Muted)

Chorus (Repeat 4 times)

Fades out on:
e|-----|
B|-----|
G|-----|
D|--7--|
A|--7--|
E|--5--|

Ending is the same as Intro Part 2/Heavy Guitar Riff/Pre-Verse played 8 times.


************************************

| /   slide up
| \   slide down
| h   hammer-on
| p   pull-off
| ~   vibrato
| +   harmonic
| x   Mute note
| b   Bend
| pb  Pre-bend
| br  Bend release
| pbr Pre-bend release
| brb Bend release bend

************************************
Tap to rate this tab
 
# A B C D E F G H I J K L M N O P Q R S T U V W X Y Z