Blink 182 - Up All Night tab

-------------------------------------------------------------------------------
			     Up All Night- Blink-182
-------------------------------------------------------------------------------
Tabbed by: Brian
Email: briantyndale1@gmail

Tuning: standard
Intro x3
e|--------------------------------------------------------------------------|
B|--------------------------------------------------------------------------|
G|--------------------------------------------------------------------------|
D|--------------------------------------------------------------------------|
A|--------------------------------------------------------------------------|
E|-77776666555544443333333310 10 10 10 10 10 10 10--------------------------|
Breakdown X4
e|--------------------------------------------------------------------------|
B|--------------------------------------------------------------------------|
G|--------9-----------------------------------------------------------------|
D|-7/6----9- 7/6---8/9--8-7-------------------------------------------------|
A|-7/6----7- 7/6---8/9--8-7-------------------------------------------------|
E|-5/4-0-----5/4-0-6/7--6-5-------------------------------------------------|
Verse X4, Donít forger to hit the 6th fret at the end of the measure
e|--------------------------------------------------------------------------|
B|--------------------------------------------------------------------------|
G|--------------------------------------------------------------------------|
D|-777777777777777777777777777777777----------------------------------------|
A|-xxxxxxxxxxxxxxxxxxxxxxxxxxxxxxxxx----------------------------------------|
E|-555555555555555555555555555555556----------------------------------------|
Pre-chorus, palm muted
e|--------------------------------------------------------------------------|
B|--------------------------------------------------------------------------|
G|--------------------------------------------------------------------------|
D|-66666666-66666666-77777777-22222222-44444444-77777777--------------------|
A|-66666666-66666666-77777777-22222222-44444444-77777777--------------------|
E|-22222222-44444444-55555555-00000000-22222222-55555555--------------------|
Verse x2
e|--------------------------------------------------------------------------|
B|--------------------------------------------------------------------------|
G|-2-4-6-4-6-7-2-4-7-6-7-6--------------------------------------------------|
D|-2-4-6-4-6-7-2-4-7-6-7-6--------------------------------------------------|
A|-0-2-4-2-4-5-0-2-5-4-5-4--------------------------------------------------|
E|---------------------------------------------------------------------------


************************************

| /   slide up
| \   slide down
| h   hammer-on
| p   pull-off
| ~   vibrato
| +   harmonic
| x   Mute note
| b   Bend
| pb  Pre-bend
| br  Bend release
| pbr Pre-bend release
| brb Bend release bend
Tap to rate this tab
 
# A B C D E F G H I J K L M N O P Q R S T U V W X Y Z