Song name
# A B C D E F G H I J K L M N O P Q R S T U V W X Y Z

Blink 182 - Up All Night tab

Guitar for the new blink-182 single! This tab is not 100% but this is how I'm going to 
play it.

Intro (after the bass intro)

E|------------------------------------------|
B|------------------------------------------|
G|-----------9------------------------------|
D|--7--6-----9----7--6-----7/9--9--8-8-7-7--|
A|--7--6-----7----7--6-----7/9--9--8-8-7-7--|
E|--5--4--0-------5--4--0--5/7--7--6-6-5-5--| x4

Verse

E|-----|
B|-----|
G|-----|
D|--7--|
A|--x--|
E|--5--| x a lot

Prechorus

E|--------------------------------------------------|
B|---(palm muted)-----------------------------------|
G|--------------------------------------------------|
D|--4-------6-------7-------2-------4-------7-------|
A|--4-------6-------7-------2-------4-------7-------|
E|--2(x16)--4(x16)--5(x16)--0(x16)--2(x16)--5(x16)--|

Chorus

Guitar 1
E|----------------|
B|----------------|
G|------------7~--|
D|--7~----2~--7~--|
A|--5~----2~--5~--|
E|--5~----0~------| x2

Guitar 2
E|--------------------------------------------------------|
B|--------------------------------------------------------|
G|--------------------------------------------------------|
D|--7--7--9--9--11-11--9--9--11-11--12-12--9------12------|
A|--x--x--x--x--x--x---x--x--x--x---x--x---x------x-------|
E|--5--5--7--7--9--9---7--7--9--9---10-10--7(x8)--10(x8)--| x2

-Intro
-Verse
-Prechorus

Chorus 2

Guitar 1
E|----------------|
B|----------------|
G|------------7~--|
D|--7~----2~--7~--|
A|--5~----2~--5~--|
E|--5~----0~------| x4

Guitar 2
E|--------------------------------------------------------|
B|--------------------------------------------------------|
G|--------------------------------------------------------|
D|--7--7--9--9--11-11--9--9--11-11--12-12--9------12------|
A|--x--x--x--x--x--x---x--x--x--x---x--x---x------x-------|
E|--5--5--7--7--9--9---7--7--9--9---10-10--7(x8)--10(x8)--| x4

E|----------------|
B|----------------|
G|----------------|
D|--7-------------|
A|--7--(ring out)-|
E|--5-------------|

Outro

E|------------------------------------------|
B|------------------------------------------|
G|-----------9------------------------------|
D|--7--6-----9----7--6-----7/9--9--8-8-7-7--|
A|--7--6-----7----7--6-----7/9--9--8-8-7-7--|
E|--5--4--0-------5--4--0--5/7--7--6-6-5-5--| x8
Tap to rate this tab
 
# A B C D E F G H I J K L M N O P Q R S T U V W X Y Z