Blink 182 - Dammit chords

Highlighted       Show chord diagrams
*Dammit By Blink-182*

Tabbed By: Killerchicken94 aka Tom :)
So this is sorta an acoustic guitar version. Great if you are playing alone. Enjoy ;D

Standard Tuning: EADGBe

Strumming pattern: Down, Down, Up, Up, Down

Chords Used:
      C     G    Am    F    G/C (I think)  Fmaj7
e-----0-----3-----0----1-----0---------------0--|
B-----1-----3-----1----1-----1---------------1--|
G-----0-----0-----2----2-----0---------------2--|
D-----2-----0-----2----3-----0---------------3--|
A-----3-----2-----0----3-----2---------------3--|
E-----x-----3-----x----1-----3---------------x--|

Main Riff: 0:00
e-----------------------------------------------|
B-----------------------------------------------|
G-----------------------------------------------|
D----------2----------2------0-0-2------2-2-0---|  X2
A--3-3-5-5--------5-5----0-0--------------------|
E-------------3-3-------------------1-1---------|

Main Riff Included in Chords: 0:09
       C
e--0-0--0-0--0---3-3--3-3--0---0-0--0-0--0---1-------------|
B--1-1--1-1--1---3-3--3-3--1---1-1--1-1--1---1-------------|
G--0-0--0-0--0---0-0--0-0--0---2-2--2-2--2---2-------------|
D--2-2--0-0--2---0-0--0-0--2---2-2--0-0--2---3-X5----------|  X2
A--3-3--3-3--3---2-2--x-x--x---0-0--0-0--0---3-------------|
E--x-x--x-x--x---3-3--3-3--3---x-x--x-x--x---1-------------|

1st Verse: 0:18
C             G
Its all right to tell me,
Am              F
what you think about me.
C           G
I won't try to argue,
Am          F
or hold it against you.
C         G
I know that your leaving,
Am             F
you must have your reasons.
C          G
the season is calling,
Am             F
your pictures are falling down.

Main Riff Included in Chords X2: 0:36

2nd Verse: 0:45
C              G
The steps that I retrace
Am           F
the sad look on your face
C           G
The timing and structure
Am           F
did you hear he fucked her?
C          G
A day late a buck short
Am           F
I'm writing the report
C          G
On losing and failing
Am           F
when I move I'm flailing now

1st Chorus: 1:02
C
And it's happened once again
G
I'll turn to a friend
Am
Someone that understands
F
Sticks to the master plan
C
But everybody's gone
G
And I've been here for too long
Am
To face this on my own
F
Well I guess this is growing up

Main Riff included in Chords X2: 1:20

Third Verse: 1:28
C          G
And maybe I'll see you
Am         F
at a movie sneak preview
C              G
You'll show up and walk by
Am         F
on the arm of that guy
C              G
And I'll smile and you'll wave
Am             F
we'll pretend it's okay
C           G
The charade it won't last
Am             F
when he's gone I won't come back

2nd Chorus: 1:47

Interlude: 2:03

      C    G/C    Am Fmaj7
e-----0-----0-----0----0----|
B-----1-----1-----1----1----|
G-----0-----0-----2----2----|
D-----2-----0-----2----3----|  X2
A-----3-----2-----0----3----|
E-----x-----3-----x----x----|
                          ... Well i guess this is Growing up

Main Riff Included in Chords X4: 2:20

End on a C: 2:38


Thats all Folks :)
Comment if you believe there are mistakes or you think you can improve this tab. And 
don't forget to rate ;)
Tap to rate this tab
 
# A B C D E F G H I J K L M N O P Q R S T U V W X Y Z