Blink 182 - Dysentery Gary tab

                              Tabbed by Henny
            Blink-182 - Dysentery Gary - Enema Of The State (1999)
                        Standard Tuning (EADGBE)

All of the tabs so far have had few mistakes in them, but this tab is straight from the 
'Enema' guitar book
and i am now spreading my knowledge onto you, lucky reader :) enjoy!

   Intro part 1
     Guitar 1 (lead, dist.):
   E|----------------|----------------|----------------|----------------|)
   B|----------------|----------------|----------------|----------------|)
   G|----------------|----------------|----------------|----------------|)x2
   D|-4-4-4-0-0-0-5-5|-5-4-4-4-0-0-0-0|-------4-4-4----|----------------|)
   A|----------------|----------------|-------------0-0|-0-4-4-4-4-4-4-0|)
   E|----------------|----------------|-3-3-3----------|----------------|)


     Guitar 2 (rhythm, dist.) comes in on repeat:
   E|----------------|----------------|----------------|----------------|
   B|----------------|----------------|----------------|----------------|
   G|-7-hold---------|---hold---------|-7-hold---------|---hold---------|
   D|-7-hold---------|---hold---------|-7-hold---------|---hold---------|
   A|-5-hold---------|---hold---------|-5-hold---------|---hold---------|
   E|----------------|----------------|----------------|----------------|

   Intro part 2
     Guitar 1:
   E|----------------|----------------|----------------|----------------|)
   B|----------------|----------------|----------------|----------------|)
   G|----------------|----------------|----------------|----------------|)x2
   D|-4-4-4-0-0-0-5-5|-5-4-4-4-0-0-0-0|-------4-4-4----|----------------|)
   A|----------------|----------------|-------------0-0|-0-4-4-4-4-4-4-0|)
   E|----------------|----------------|-3-3-3----------|----------------|)

     Guitar 2:
   E|----------------|----------------|----------------|----------------|)
   B|----------------|----------------|----------------|----------------|)
   G|-7---7-7-7-7-7--|-7-7-7-7-7-7-7--|----------------|----------------|)x2
   D|-7---7-7-7-7-7--|-7-7-7-7-7-7-7--|-5---5-5-5-5-7--|-7-7-7-7-7-7-7--|)
   A|-5---5-5-5-5-5--|-5-5-5-5-5-5-5--|-5---5-5-5-5-7--|-7-7-7-7-7-7-7--|)
   E|----------------|----------------|-3---3-3-3-3-5--|-5-5-5-5-5-5-5--|)

   Verse 1
     Guitar 1:
   E|----------------|----------------|----------------|----------------|
   B|----------------|----------------|----------------|----------------|
   G|----------------|----------------|----------------|----------------|
   D|----------------|----------------|----------------|----------------|
   A|-5-hold---------|---hold---------|----hold--------|---hold---------|
   E|----------------|----------------|----------------|----------------|

     Guitar 2:
   E|----------------|----------------|----------------|----------------|)
   B|----------------|----------------|----------------|----------------|)
   G|-7--------------|----------------|-7--------------|----------------|)
   D|-x-----------4--|----------------|-x-----------4--|----------------|)
   A|-5---0-0-0-0-5--|----------------|-5---0-0-0-0-5--|----------------|)
   E|----------------|----------------|----------------|----------------|)
        PM-------|                        PM-------|                     )
                                                                         )x2
   E|----------------|----------------|----------------|------------------|)
   B|----------------|----------------|----------------|------------------|)
   G|----------------|----------------|-2-----------2--|---------2--------|)
   D|-5-----------5--|----------------|-2-----------2--|---------2--------|)
   A|-5---0-0-0-0-5--|----------------|-0-----------0--|---------0--------|)
   E|-3-----------3--|----------------|-----3-3-3-3----|-3-3-3-3-----3----|)
        PM-------|                        PM-------|   PM-----------------|)

   Interlude 1
     Guitar 3 (clean):
   E|----------------|----------------|----------------|----------------|
   B|-3---3---3---3--|-3---3---3---3--|-3---3---3---3--|-2---2---2---2--|
   G|-2---2---2---2--|-2---2---2---2--|-0---0---0---0--|-2---2---2---2--|
   D|-0---0---0---0--|-0---0---0---0--|-0---0---0---0--|-2---2---2---2--|
   A|----------------|----------------|----------------|-0---0---0---0--|
   E|----------------|----------------|----------------|----------------|

   Prechorus 1
     Guitar 2:
   E|----------------|----------------|----------------|----------------|
   B|----------------|----------------|----------------|----------------|
   G|-7---7-7-7---7--|-7-7-7---7---7--|-7---7-7-7---7--|-7-7-7---7---7--|
   D|-7---7-7-7---7--|-7-7-7---7---7--|-7---7-7-7---7--|-7-7-7---7---7--|
   A|-5---5-5-5---5--|-5-5-5---5---5--|-5---5-5-5---5--|-5-5-5---5---5--|
   E|----------------|----------------|----------------|----------------|

   E|----------------|----------------|----------------|----------------|
   B|----------------|----------------|----------------|----------------|
   G|----------------|----------------|----------------|----------------|
   D|-5---5---5---5--|-5---5-5-5-5-5--|-7---7-7-7----7-|-7-7-7-7-7---7--|
   A|-5---5---5---5--|-5---5-5-5-5-5--|-7---7-7-7----7-|-7-7-7-7-7---7--|
   E|-3---3---3---3--|-3---3-3-3-3-3--|-5---5-5-5----5-|-5-5-5-5-5---5--|

   Chorus 1
     Guitar 4 (dist.):
   E|15----14--------|----------------|15-----14-------|----------------|)
   B|-----------15---|----------------|-----------15---|----------------|)
   G|----------------|--12b--12b--12b-|----------------|--12b--12b--12b-|)
   D|----------------|----------------|----------------|----------------|)
   A|----------------|----------------|----------------|----------------|)
   E|----------------|----------------|----------------|----------------|)
                                                                         )x3
     Guitar 2:                                                           )
   E|----------------|----------------|----------------|----------------|)
   B|----------------|----------------|----------------|----------------|)
   G|----------------|----------------|----------------|----------------|)
   D|----------------|----------------|----------------|----------------|)
   A|----------------|----------------|----------------|----------------|)
   E|-3---3-3-3-3-3--|--hold----------|-hold-----------|----------------|)

   Preverse
     Guitar 1:
   E|----------------|----------------|----------------|----------------|)
   B|----------------|----------------|----------------|----------------|)
   G|----------------|----------------|----------------|----------------|)x2
   D|-4-4-4-0-0-0-5-5|-5-4-4-4-0-0-0-0|-------4-4-4----|----------------|)
   A|----------------|----------------|-------------0-0|-0-4-4-4-4-4-4-0|)
   E|----------------|----------------|-3-3-3----------|----------------|)

     Guitar 2:

   E|----------------|----------------|----------------|----------------|
   B|----------------|----------------|----------------|----------------|
   G|-7-hold---------|-hold-----------|----------------|----------------|
   D|-7-hold---------|-hold-----------|-5---5-5-5-5-7--|-7-7-7-7-7-7-7--|
   A|-5-hold---------|-hold-----------|-5---5-5-5-5-7--|-7-7-7-7-7-7-7--|
   E|----------------|----------------|-3---3-3-3-3-5--|-5-5-5-5-5-5-5--|

   E|----------------|----------------|----------------|----------------|
   B|----------------|----------------|----------------|----------------|
   G|-7---7-7-7-7-7--|-7-7-7-7-7-7-7-7|----------------|----------------|
   D|-7---7-7-7-7-7--|-7-7-7-7-7-7-7-7|-5---5-5-5-5-7--|-7-7-7-7-7-7-7--|
   A|-5---5-5-5-5-5--|-5-5-5-5-5-5-5-5|-5---5-5-5-5-7--|-7-7-7-7-7-7-7--|
   E|----------------|----------------|-3---3-3-3-3-5--|-5-5-5-5-5-5-5--|

   Verse 2
     Guitar 1: play verse 1
     Guitar 2: play verse 1

   Interlude 2
     Guitar 3: play interlude 1, but play through twice

   Prechorus 2
     Guitar 2: play prechorus 1

   Chorus 2
     Guitar 4: play chorus 1

   Bridge
     Guitar 3:
   E|----------------|----------------|----------------|----------------|)
   B|----------------|----------------|----------------|----------------|)
   G|----------------|----------------|----------------|----------------|)
   D|-4---4h5-----4--|-hold-----------|-2--------------|----------------|)
   A|-5--------------|----------------|-------------0--|-hold-----------|)
   E|----------------|----------------|------3---------|----------------|)
                                                                         )x2
   E|----------------|----------------|----------------|----------------|)
   B|----------------|----------------|----------------|----------------|)
   G|----------------|----------------|----------------|----------------|)
   D|-4---4h5-----4--|-hold-----------|-2-----------0--|-hold-----------|)
   A|-5--------------|----------------|-----0----------|----------------|)
   E|----------------|----------------|----------------|----------------|)

   E|----------------|
   B|----------------|
   G|----------------|
   D|-5--------------|
   A|-5--------------|
   E|-3--------------|

   Chorus 3
     Guitar 4: play chorus 1

     Guitar 2:
   E|----------------|----------------|----------------|----------------|
   B|----------------|----------------|----------------|----------------|
   G|----------------|----------------|----------------|----------------|
   D|-5----5----5-5--|-5-5-5---5---5--|-7----7----7-7--|-7-7-7---7---7--|
   A|-5----5----5-5--|-5-5-5---5---5--|-7----7----7-7--|-7-7-7---7---7--|
   E|-3----3----3-3--|-3-3-3---3---3--|-5----5----5-5--|-5-5-5---5---5--|

   E|----------------|----------------|----------------|----------------|
   B|----------------|----------------|----------------|----------------|
   G|-7----7----7-7--|-7-7-7---7------|-4----4----4-4--|-4-4-4---4---4--|
   D|-7----7----7-7--|-7-7-7---7------|-4----4----4-4--|-4-4-4---4---4--|
   A|-5----5----5-5--|-5-5-5---5---0--|-2----2----2-2--|-2-2-2---2---2--|
   E|----------------|----------------|----------------|----------------|

   E|----------------|----------------|----------------|----------------|
   B|----------------|----------------|----------------|----------------|
   G|----------------|----------------|----------------|----------------|
   D|-5----5----5-5--|-5-5-5---5---5--|-7----7----7-7--|-7-7-7---7---7--|
   A|-5----5----5-5--|-5-5-5---5---5--|-7----7----7-7--|-7-7-7---7---7--|
   E|-3----3----3-3--|-3-3-3---3---3--|-5----5----5-5--|-5-5-5---5---5--|

   Outro
     Guitar 1:
   E|----------------|----------------|----------------|
   B|----------------|----------------|----------------|
   G|----------------|----------------|----------------|
   D|-4-4-4-0-0-0-5-5|-5-4-4-4--------|----------------|
   A|----------------|----------------|-5--------------|
   E|----------------|---------3/5-5-5|----------------|

     Guitar 2:
   E|----------------|----------------|----------------|
   B|----------------|----------------|-7--------------|
   G|-7--------------|----------------|-7--------------|
   D|-7--------------|----------------|-7--------------|
   A|-5--------------|----------------|-5--------------|
   E|----------------|----------------|----------------|
Tap to rate this tab
 
# A B C D E F G H I J K L M N O P Q R S T U V W X Y Z