Song name
# A B C D E F G H I J K L M N O P Q R S T U V W X Y Z

Blink 182 - Up All Night tab

Guitar Riff Intro

E----------------------------------------|
A----------------------------------------|
D---------9------------------------------|
G---7-6-0-9-7-6-0-8-9-8-7----------------|
B---7-6-0-7-7-6-0-8-9-8-7----------------|
E---5-4-0---5-4-0-6-7-6-5----------------| x2

Verse

E----------------------------------------|
A----------------------------------------|
D---2------------------------------------|
G---x-(Repeat throughout whole verse)----|
B---0------------------------------------|
E----------------------------------------|


Prechorus

E   |-----------------------|
B   |-----------------------|
G   |---------------------7-|
D   |---------------------5-|
A   |---4--7--7--2--4-------|
E   |---2--4--5--0--2-------|
(palm mute these chords)


Chorus

E   |-------------------------------------------|
B   |-------------------------------------------|
G   |---2--4--6--4--6--7-----4--6--7--6--7--6---|
D   |---x--x--x--x--x--x-----x--x--x--x--x--x---|
A   |---0--2--4--2--4--5-----2--4--5--4--5--4---|
E   |-------------------------------------------|
(just learn the strumming pattern for these chords)


That's the stuff, hostess.
Tap to rate this tab
# A B C D E F G H I J K L M N O P Q R S T U V W X Y Z