Song name
# A B C D E F G H I J K L M N O P Q R S T U V W X Y Z

Blink 182 - I Wanna Fuck A Dog In The Ass tab

My first tabs. Blink-182 Fuck Yeah!

e-------------------------------|
b----0--------------------------|
g------0---0-------------2------|
d-0------0-------5----0---------|
a-------------3----3------------|
e-------------------------------|

            OR


e---------------------------|
b---------------------------|
g----4----------------------|
d------5---5-----5-------7--|
a-5------5----3----3--5-----|
e---------------------------|

Tap to rate this tab
# A B C D E F G H I J K L M N O P Q R S T U V W X Y Z