Song name
# A B C D E F G H I J K L M N O P Q R S T U V W X Y Z

Blink 182 - Hearts All Gone tab

-----------------------------------------------------------------------------
			  Heart’s All Gone – Blink-182
-----------------------------------------------------------------------------

Tabbed by: x3icxblink182

Email: x3ricxblink182@aim.com

Tuning: Standard

Intro:

E|-------|
B|-------|
G|-------|
D|-2~~~--|
A|-3~~~--|
E|-5~~~--|

E|----------------------------------------|
B|----------------------------------------|
G|-2-2-22---2-2-2222----------------------|
D|-2-2-22---2-2-2222--3-3-33x--3-3-33-55--|
A|-0-0-00---0-0-0000--3-3-33x--3-3-33-55--|
E|--------------------1-1-11x--1-1-11-33--| x2


Verse 1:

E|----------------------------------|
B|----------------------------------|
G|--22222222222222------------------|
D|--22222222222222-33333333333333---|
A|--00000000000000-33333333333333---|
E|-----------------11111111111111---| x3

E|----------------------------------|
B|----------------------------------|
G|--22222222222222------------------|
D|--22222222222222-3333333-5555555--|
A|--00000000000000-3333333-5555555--|
E|-----------------1111111-3333333--| 

Chorus:

E|----------------------------------------------------|
B|-55555555555555-555555555555------------------------|
G|-55555555555555-555555555555------------------------|
D|-xxxxxxxxxxxxxx-xxxxxxxxxxxx--3-33-2-22-3-33-2-22---|
A|-33333333333333-555555555555--3-33-3-33-3-33-3-33---|
E|------------------------------1-11-0-00-1-11-0-00---| x2

Post Chorus:

E|----------------------------------------|
B|----------------------------------------|
G|-2-2-22---2-2-2222----------------------|
D|-2-2-22---2-2-2222--3-3-33x--3-3-33-55--|
A|-0-0-00---0-0-0000--3-3-33x--3-3-33-55--|
E|--------------------1-1-11x--1-1-11-33--| x2

While the first guitar is playing, a second guitar plays a lead:

E|--------------------------------------|
B|--55-3-5--55-3-5-3----------666-8-5---|
G|-------------------55555555-----------|
D|--------------------------------------|
A|--------------------------------------|
E|--------------------------------------| x2


Verse 2:

E|----------------------------------|
B|----------------------------------|
G|--22222222222222------------------|
D|--22222222222222-33333333333333---|
A|--00000000000000-33333333333333---|
E|-----------------11111111111111---| 

E|----------------------------------|
B|----------------------------------|
G|--22222222222222------------------|
D|--22222222222222-3333333-5555555--|
A|--00000000000000-3333333-5555555--|
E|-----------------1111111-3333333--| 


Chorus 2:

E|----------------------------------------------------|
B|-55555555555555-555555555555------------------------|
G|-55555555555555-555555555555------------------------|
D|-xxxxxxxxxxxxxx-xxxxxxxxxxxx--3-33-2-22-3-33-2-22---|
A|-33333333333333-555555555555--3-33-3-33-3-33-3-33---|
E|------------------------------1-11-0-00-1-11-0-00---| x4

This lead plays when Chorus 2 starts playing a third time:

E|-8888---10101010---12121212---12121212-10-|
B|------8----------8----------8-------------|
G|------------------------------------------|
D|------------------------------------------|
A|------------------------------------------|
E|------------------------------------------|

Bridge:

E|-8~~~~-------------------------------------------------|
B|-------------------------------------------------------|
G|-------------------------------------------------5~~~--|
D|-------------------3~~~------------7~~~----------5~~~--|
A|-------------------3~~~------------7~~~----------3~~~--|
E|-------------------1~~~------------5~~~----------------|

E|--------------------------------------|
B|--------------------------------------|
G|--------------------------------------|
D|-77777777777777-333333333333333333----|
A|-77777777777777-333333333333333333----|
E|-55555555555555-111111111111111111----|

E|-------------------------------|
B|-------------------------------|
G|-------------------------------|
D|--777777777-33333333555555555--|
A|--777777777-33333333555555555--|
E|--555555555-11111111333333333--|


Chorus:

E|----------------------------------------------------|
B|-55555555555555-555555555555------------------------|
G|-55555555555555-555555555555------------------------|
D|-xxxxxxxxxxxxxx-xxxxxxxxxxxx--3-33-2-22-3-33-2-22---|
A|-33333333333333-555555555555--3-33-3-33-3-33-3-33---|
E|------------------------------1-11-0-00-1-11-0-00---| x6

Plays at the 5th repeat of Chorus:

E|-8888---10101010---12121212---12121212-10-8--|
B|------8----------8----------8----------------|
G|---------------------------------------------|
D|---------------------------------------------|
A|---------------------------------------------|
E|---------------------------------------------| x2

End on:

E|-------|
B|-------|
G|-------|
D|-2~~~--|
A|-3~~~--|
E|-5~~~--|


************************************


Tap to rate this tab
# A B C D E F G H I J K L M N O P Q R S T U V W X Y Z