Song name
# A B C D E F G H I J K L M N O P Q R S T U V W X Y Z

Blink 182 - Up All Night tab

-----------------------------------------------------------------
Up All Night - Blink 182
-----------------------------------------------------------------
Tabbed by: Steve Richter
Email: srichter@gmail.com

Tuning: Standard

Great new track from Blink, glad they're back! Here's what I got from a few listens

Intro:

Tom uses some effects here, but he's just tremolo picking one note

e|--------------|
B|--------------|
G|---77777777---|
D|--------------|
A|--------------| x24
E|--------------|

Full band intro:

e|--------------------------------------------|
B|--------------------------------------------|
G|------------99p0------------3--44--33--22---|
D|---7--6--2--99p0---7--6--2--3--44--33--22---|
A|---7--6--2--77p0---7--6--2--1--22--11--00---| x4
E|---5--4--0---------5--4--0------------------|

Verse:

There's some slight bending here, listen to the song

e|--------------|
B|--------------|
G|--------------|
D|---77777777---|
A|---xxxxxxxx---| x16
E|---55555555---|

Pre-chorus:

e|----------------------------------------------------------|
B|----------------------------------------------------------|
G|----------------------------------------------------------|
D|----------------------------------------------------------|
A|---4444444444444444--6666666666666666--7777777777777777---|
E|---2222222222222222--4444444444444444--5555555555555555---|
pm   ................  ................  ................

e|----------------------------------------------------------|
B|----------------------------------------------------------|
G|----------------------------------------------------------|
D|---------------------------------------7777777777777777---|
A|---2222222222222222--4444444444444444--5555555555555555---|
E|---0000000000000000--2222222222222222---------------------| 
pm   ................  ................  ................

Chorus:

There's two guitars here, I'll try to tab them aligned

Guitar1
e|---------------------------------------------------------------|
B|---------------------------------------------------------------|
G|---2-------------------------------7---------------------------|
D|---2----------------------2--------7---------------------------|
A|---0---(let ring)---------2--------5--(let ring)---------------|
E|--------------------------0--(let ring)------------------------| x2

Guitar2
e|---------------------------------------------------------------|
B|---------------------------------------------------------------|
G|-------444-666-444-66-77--444-666-777-666-77-99----------------|
D|---777-xxx-xxx-xxx-xx-xx--xxx-xxx-xxx-xxx-xx-xx----------------|
A|---xxx-222-444-222-44-55--222-444-555-444-55-77----------------|
E|---555---------------------------------------------------------| x2

Full band intro again x4
Tom uses more effects here, he might also only play the root notes

Verse 2 is the same as the first one

2nd Pre-chorus is the same

2nd Chorus is the same except 4x and at the end:

e|-------------------|
B|-------------------|
G|---2---------------|
D|---2---------------|
A|---0--(let ring)---|
E|-------------------|

Then the full band intro again x8

That's it! Can't wait for the album!

| /  slide up
| \  slide down
| h  hammer-on
| p  pull-off
| ~  vibrato
| +  harmonic
| x  Mute note
| pm Palm mute
Tap to rate this tab
# A B C D E F G H I J K L M N O P Q R S T U V W X Y Z