Song name
# A B C D E F G H I J K L M N O P Q R S T U V W X Y Z

Blink 182 - Hearts All Gone tab

-------------------------------------------------------------------------------
		         HEART'S ALL GONE - Blink 182
-------------------------------------------------------------------------------
Tabbed by: pako96
Email: pako.de.lisi@live.it

Tuning: Standard

Guitar 1: Distorted
Guitar 2: Distorted

I'm sure this tab is 100% correct. If you have any questions send me an e-mail.

Intro
e|-------------------|
B|-------------------|
G|-------------22222-| x1
D|-------------22222-|
A|---0~--------00000-|
E|---0~--------------|

Pre-Verse 1
e|------------------------------------|
B|------------------------------------|
G|---22222222-------------------22222-| x1
D|---22222222-33333---3333333-0-22222-|
A|---00000000-33333---3333333-0-00000-|
E|------------11111---1111111-0-------|

e|------------------------------|
B|------------------------------|
G|---22222222-------------------| x1
D|---22222222-33333---3333333-0-|
A|---00000000-33333---3333333-0-|
E|------------11111---1111111-0-|

Verse 1
e|-------------------------------------|
B|-------------------------------------|
G|---2222222222222222------------------| x3
D|---2222222222222222-3333333333333333-| 
A|---0000000000000000-3333333333333333-|
E|--------------------1111111111111111-|

e|--------------------------------------|
B|--------------------------------------|
G|---2222222222222222-------------------| x1
D|---2222222222222222-33333333-55555555-| 
A|---0000000000000000-33333333-55555555-|
E|--------------------11111111-33333333-|

Chorus 1
e|-----------------------------------------|
B|-----------------------------------------|
G|---55555555-77777777---------------------| x2
D|---55555555-77777777-3333-2222-3333-2222-|
A|---33333333-55555555-3333-3333-3333-3333-|
E|---------------------1111-0000-1111-0000-|

Pre-Verse 2 - Guitar 1
e|------------------------------------|
B|------------------------------------|
G|---22222222-------------------22222-| x1
D|---22222222-33333---3333333-0-22222-|
A|---00000000-33333---3333333-0-00000-|
E|------------11111---1111111-0-------|

e|------------------------------|
B|------------------------------|
G|---22222222-------------------| x1
D|---22222222-33333---3333333-0-|
A|---00000000-33333---3333333-0-|
E|------------11111---1111111-0-|

Guitar 2
e|---------0---------0-0-----00000-------0---------0-0-----000-0-0-0--|
B|---------5---------5-3-----88888-------5---------5-3-----888-101010-|
G|-----5-7-------5-7-----5-----------5-7-------5-7-----5--------------| x1
D|---7---------7-------------------7---------7------------------------|
A|--------------------------------------------------------------------|
E|--------------------------------------------------------------------|

Verse 2
e|-------------------------------------|
B|-------------------------------------|
G|---2222222222222222------------------| x1
D|---2222222222222222-3333333333333333-| 
A|---0000000000000000-3333333333333333-|
E|--------------------1111111111111111-|

e|--------------------------------------|
B|--------------------------------------|
G|---2222222222222222-------------------| x1
D|---2222222222222222-33333333-55555555-| 
A|---0000000000000000-33333333-55555555-|
E|--------------------11111111-33333333-|

Chorus 2 - Guitar 1
e|-----------------------------------------|
B|-----------------------------------------|
G|---55555555-77777777---------------------| x4
D|---55555555-77777777-3333-2222-3333-2222-|
A|---33333333-55555555-3333-3333-3333-3333-|
E|---------------------1111-0000-1111-0000-|

at the fourth time end with
e|------|
B|------|
G|---2~-| x1
D|---2~-|
A|---0~-|
E|------|

Guitar 2 (start to play this when the Guitar 1 plays the chorus for the third time)
e|---------------------------12----12-------12----12-------|
B|---13131313----15151515-13----13----13-------13----13----|
G|------------12-------------------------12-------------12-| x2
D|---------------------------------------------------------|
A|---------------------------------------------------------|
E|---------------------------------------------------------|

at the second time end with
e|-------|
B|---13~-| 
G|-------| x1
D|-------|
A|-------|
E|-------|

Interlude
e|--------------------------|
B|--------------------------|
G|-------------2~-----------| x1
D|---3~--------2~--------3~-|
A|---3~--------0~--------3~-|
E|---1~------------------1~-|

e|-----------------------------------------------------------------------|
B|-----------------------------------------------------------------------|
G|-----------------------------------------------------------------------| X1
D|---2222222222222222-----------------2222222222222222----------55555555-|
A|---0000000000000000-333333333333333-0000000000000000-33333333-55555555-|
E|--------------------111111111111111------------------11111111-33333333-|
 P.M.**********************************************************

e|-----------------------------------------|
B|-----------------------------------------|
G|---55555555-77777777---------------------| x2
D|---55555555-77777777-3333-2222-3333-2222-|
A|---33333333-55555555-3333-3333-3333-3333-|
E|---------------------1111-0000-1111-0000-|

Chorus 3 - Guitar 1
e|-----------------------------------------|
B|-----------------------------------------|
G|---55555555-77777777---------------------| x4
D|---55555555-77777777-3333-2222-3333-2222-|
A|---33333333-55555555-3333-3333-3333-3333-|
E|---------------------1111-0000-1111-0000-|

at the fourth time end with
e|------|
B|------|
G|---2~-| x1
D|---2~-|
A|---0~-|
E|------|

Guitar 2 (start to play this when the Guitar 1 plays the chorus for the third time)
e|---------------------------12----12-------12----12-------|
B|---13131313----15151515-13----13----13-------13----13----|
G|------------12-------------------------12-------------12-| x2
D|---------------------------------------------------------|
A|---------------------------------------------------------|
E|---------------------------------------------------------|

at the second time end with
e|-------|
B|---13~-| 
G|-------| x1
D|-------|
A|-------|
E|-------|

END.

************************************

| /   slide up
| \   slide down
| h   hammer-on
| p   pull-off
| ~   vibrato
| +   harmonic
| x   Mute note
| b   Bend
| pb  Pre-bend
| br  Bend release
| pbr Pre-bend release
| brb Bend release bend

************************************
Tap to rate this tab
 
# A B C D E F G H I J K L M N O P Q R S T U V W X Y Z