Song name
# A B C D E F G H I J K L M N O P Q R S T U V W X Y Z

Blink 182 - Hearts All Gone tab

BLINK 182
HEART'S ALL GONE

by http://www.Blink182GuitarLessons.com


[some of the strumming patterns are hard to hear so play them as you think correct :-) ]


INTRO x1
e|-----------------|-----------------|-----------------|-----------------|
B|-----------------|-----------------|-----------------|-----------------|
G|---2-------------|-----------------|-----------------|-----------------|
D|---2-------------|-----------------|-----------------|-----------------|
A|---0-------------|-----------------|-----------------|-----------------|
E|---0-------------|-----------------|-----------------|-----------------|


PRE-VERSE a x2
e|-----------------|-----------------|-----------------|-----------------|
B|-----------------|-----------------|-----------------|-----------------|
G|-2-2-2-2---------|-2-2-2-2-2-2-2---|-----------------|-----------------|
D|-2-2-2-2---------|-2-2-2-2-2-2-2---|-3-3-3-3---------|-3-3-3-3-3-3-3---|
A|-0-0-0-0---------|-0-0-0-0-0-0-0---|-3-3-3-3---------|-3-3-3-3-3-3-3---|
E|-0-0-0-0---------|-0-0-0-0-0-0-0---|-1-1-1-1---------|-1-1-1-1-1-1-1---|


VERSE x4
"Take off the gloves, we fell in love by the side of the road..."
e|-----------------|-----------------|-----------------|-----------------|
B|-----------------|-----------------|-----------------|-----------------|
G|-2-2--2-2-2-2-2--|-2-2--2-2-2-2-2--|-----------------|-----------------|
D|-2-2--2-2-2-2-2--|-2-2--2-2-2-2-2--|-3-3---3-3-3-3-3-|-3-3---3-3-3-3-3-|
A|-0-0--0-0-0-0-0--|-0-0--0-0-0-0-0--|-3-3---3-3-3-3-3-|-3-3---3-3-3-3-3-|
E|-0-0--0-0-0-0-0--|-0-0--0-0-0-0-0--|-1-1---1-1-1-1-1-|-1-1---1-1-1-1-1-|


CHORUS a x2
"You seemed so sweet at the start but the start's all wrong..."
e|-----------------|-----------------|-----------------|-----------------|
B|-----------------|-----------------|-----------------|-----------------|
G|-----------------|-----------------|-----------------|-----------------|
D|-5-5--5-5-5-5----|-7-7---7-7-7-7---|-----------------|-----------------|
A|-3-3--3-3-3-3----|-5-5---5-5-5-5---|-3--3--3--3--3---|-3--3--3--3--3---|
E|-----------------|-----------------|-1--1--1--0--0---|-1--1--1--0--0---|


PRE-VERSE a x2
e|-----------------|-----------------|-----------------|-----------------|
B|-----------------|-----------------|-----------------|-----------------|
G|-2-2-2-2---------|-2-2-2-2-2-2-2---|-----------------|-----------------|
D|-2-2-2-2---------|-2-2-2-2-2-2-2---|-3-3-3-3---------|-3-3-3-3-3-3-3---|
A|-0-0-0-0---------|-0-0-0-0-0-0-0---|-3-3-3-3---------|-3-3-3-3-3-3-3---|
E|-0-0-0-0---------|-0-0-0-0-0-0-0---|-1-1-1-1---------|-1-1-1-1-1-1-1---|


PRE-VERSE b x2
e|-----------------|-----------------|-----------------|-----------------|
B|---3---5---------|---3---5-3-------|-----------------|-----------------|
G|-5---5-----------|-5---5-----5-----|-----------------|-----------------|
D|-----------------|-----------------|-----------------|-----------------|
A|-----------------|-----------------|-----------------|-----------------|
E|-----------------|-----------------|-----------------|-----------------|


VERSE x2
"Blackjack and architect, let's drink ourselves to death..."
e|-----------------|-----------------|-----------------|-----------------|
B|-----------------|-----------------|-----------------|-----------------|
G|-2-2--2-2-2-2-2--|-2-2--2-2-2-2-2--|-----------------|-----------------|
D|-2-2--2-2-2-2-2--|-2-2--2-2-2-2-2--|-3-3---3-3-3-3-3-|-3-3---3-3-3-3-3-|
A|-0-0--0-0-0-0-0--|-0-0--0-0-0-0-0--|-3-3---3-3-3-3-3-|-3-3---3-3-3-3-3-|
E|-0-0--0-0-0-0-0--|-0-0--0-0-0-0-0--|-1-1---1-1-1-1-1-|-1-1---1-1-1-1-1-|


CHORUS a x4
"You seemed so sweet at the start but the start's all wrong..."
e|-----------------|-----------------|-----------------|-----------------|
B|-----------------|-----------------|-----------------|-----------------|
G|-----------------|-----------------|-----------------|-----------------|
D|-5-5--5-5-5-5----|-7-7---7-7-7-7---|-----------------|-----------------|
A|-3-3--3-3-3-3----|-5-5---5-5-5-5---|-3--3--3--3--3---|-3--3--3--3--3---|
E|-----------------|-----------------|-1--1--1--0--0---|-1--1--1--0--0---|

(last two times of playing 'Chorus A' play Chorus B aswell)

CHORUS b x2
e|-------------------|----------------|-12----12-------|-12----12--------|
B|-13-------13-------|-15-------15-13-|----13----13----|----13----13-----|
G|----12-12----12-12-|----12-12-------|-------------12-|-------------12--|
D|-------------------|----------------|----------------|-----------------|
A|-------------------|----------------|----------------|-----------------|
E|-------------------|----------------|----------------|-----------------|


BRIDGE a x2
e|-----------------|-----------------|-----------------|-----------------|
B|-----------------|-----------------|-----------------|-----------------|
G|---2-------------|-----------------|-----------------|-----------------|
D|---2-------------|-----------------|-3---------------|-----------------|
A|---0-------------|-----------------|-3---------------|-----------------|
E|---0-------------|-----------------|-1---------------|-----------------|


BRIDGE b x2
e|-----------------|-----------------|-----------------|-----------------|
B|-----------------|-----------------|-----------------|-----------------|
G|-----------------|-----------------|-----------------|-----------------|
D|-----------------|-----------------|-----------------|-----------------|
A|-0-0-0-0-0-000-0-|-0-0-0-000-0-0-0-|-----------------|-----------------|
E|-----------------|-----------------|-1-1-1-111-1-1-1-|-1-1-1-111-1-1-1-|
   .....................................................................


CHORUS a x2
e|-----------------|-----------------|-----------------|-----------------|
B|-----------------|-----------------|-----------------|-----------------|
G|-----------------|-----------------|-----------------|-----------------|
D|-5-5--5-5-5-5----|-7-7---7-7-7-7---|-----------------|-----------------|
A|-3-3--3-3-3-3----|-5-5---5-5-5-5---|-3--3--3--3--3---|-3--3--3--3--3---|
E|-----------------|-----------------|-1--1--1--0--0---|-1--1--1--0--0---|


CHORUS a x4
"You seemed so sweet at the start but the start's all wrong..."
e|-----------------|-----------------|-----------------|-----------------|
B|-----------------|-----------------|-----------------|-----------------|
G|-----------------|-----------------|-----------------|-----------------|
D|-5-5--5-5-5-5----|-7-7---7-7-7-7---|-----------------|-----------------|
A|-3-3--3-3-3-3----|-5-5---5-5-5-5---|-3--3--3--3--3---|-3--3--3--3--3---|
E|-----------------|-----------------|-1--1--1--0--0---|-1--1--1--0--0---|

(last two times of playing 'Chorus A' play Chorus B aswell)
CHORUS b x2
e|-------------------|----------------|-12----12-------|-12----12--------|
B|-13-------13-------|-15-------15-13-|----13----13----|----13----13-----|
G|----12-12----12-12-|----12-12-------|-------------12-|-------------12--|
D|-------------------|----------------|----------------|-----------------|
A|-------------------|----------------|----------------|-----------------|
E|-------------------|----------------|----------------|-----------------|


END ON
e|-----------------|-----------------|-----------------|-----------------|
B|-----------------|-----------------|-----------------|-----------------|
G|---2-------------|-----------------|-----------------|-----------------|
D|---2-------------|-----------------|-----------------|-----------------|
A|---0-------------|-----------------|-----------------|-----------------|
E|---0-------------|-----------------|-----------------|-----------------|


Thanks, for more tabs and video lessons go to:
http://www.Blink182GuitarLessons.com

Tap to rate this tab
# A B C D E F G H I J K L M N O P Q R S T U V W X Y Z