Song name
# A B C D E F G H I J K L M N O P Q R S T U V W X Y Z

Blink 182 - Hearts All Gone tab

Blink 182 - Heart's All Gone
Standard tuning

Intro/verse chords (play whichever one you prefer)
E |----------------------------------------|
B |----------------------------------------|
G |-2---------------- G |-2-----10---------|
D |-2------3-------- D |-2-----10----------|
A |-0------3-------- A |-0------8----------|
E |-0------1-------- E |-0------8----------|

Pre 2nd verse notes

E |-----------------------------------------------|
B |------3------5---------------3----5---3--------|
G |--5------5---------------5-----5----------5----| ring out
D |-----------------------------------------------|
A |-----------------------------------------------|
E |-----------------------------------------------|

Chorus chords
E |--------------------|
B |--------------------|
G |--------------------|
D |--5---7-------------|
A |--3---5---3---3-----|
E |-----------1---0----|

Chorus notes
E |-----------------------------------------------------------------|
B |--13--------------13-------------15-------------15--13-----------|
G |-------12--12---------12--12--------12--12-----------------------|
D |-----------------------------------------------------------------|
A |-----------------------------------------------------------------|
E |-----------------------------------------------------------------|

continued


E |--12-------12----------------12-------12---------------------|
B |-------13-------13------------------13-------13--------------|
G |-----------------------12----------------------------12------|
D |-------------------------------------------------------------|
A |-------------------------------------------------------------|
E |-------------------------------------------------------------|

Bridge
E |-----------------------------------|
B |-----------------------------------|
G |-----------------------------------|
D |-----------------------------------|
A |---0-0-0-0-0-----------------------|
E |-----------------1-1-1-1-1-1-------|
Palm muting notes
Tap to rate this tab
# A B C D E F G H I J K L M N O P Q R S T U V W X Y Z