Song name
# A B C D E F G H I J K L M N O P Q R S T U V W X Y Z

Blink 182 - What Went Wrong tab

WHAT WENT WRONG by BLINK-182

-Chords-              *= augmented

   E5  D5  A5  F#5  G#5* C#5*  Bm5
e ---------------------------------|
b ---------------------------------|
g -9---7------------------6-----7--|
d -9---7---7----4----6----7-----9--|
a -7---5---7----4----7----4-----9--|
E ---------5----2----4----------7--|

Intro:

e -------------|
b -------------|
g -------------|
d -----9--7----|
a --7----------|
E -------------|
 (play 6 times)

Intro rhythm:

A5   A5   F#5  D5  (x2)

Verse 1:

A5   F#5  E5  D5   (x2)

-Intro again-

Verse 2:

A5   F#5  E5   D5   (X2)

Chorus:

A5   G#5*  C#5*   D   (X2)

Verse 3:

A5   F#5  E5   D5   (x2)

Chorus:

A5   G#5*  C#5*   D   (X2)

Bridge;

e ------0----------------0-----------------0--------------0--------------0--------|
b ---------------2-----------------2--------------2---------------2-----------2---|
g ----2---2----2---2---2---2-----2---2---2---2--2---2---2---2---2---2---2-2--2-2--|
d -------------------------------------0-------0------0-------0-------------------|
a --------------------------------------------------------------------0-----0-----|
E --2--------2-------2--------2---------------------------------------------------|

e ------0------------------------------------------------|
b -------------2----2---2------2-2-2-2-2-2-2-2-2-2-2-2---|
g ----2---2---2-2--2---2---2---2-2-2-2-2-2-2-2-2-2-2-2---|
d ----------------0---0---0-0--0-0-0-0-0-0-0-0-0-0-0-0---|
a --2-------2--------------------------------------------|
E -------------------------------------------------------|

F#5   D   A   A
F#5   D   A   A
B^    D

Outro:

A5   A5   F#5    D  (x4)

Then the song ends on A5.

Thanks! Send me any corrections
Tap to rate this tab
# A B C D E F G H I J K L M N O P Q R S T U V W X Y Z