Song name
# A B C D E F G H I J K L M N O P Q R S T U V W X Y Z

Blink 182 - Up All Night tab

Intro PT 1

 |------------------------x3------------------------|-first-2-times--|
e|----------------|----------------|----------------|----------------|
B|----------------|----------------|----------------|----------------|
G|----------------|----------------|----------------|----------------|
D|----------------|----------------|----------------|----------------|
A|----------------|----------------|----------------|----------------|
E|9-9-9-9-8-8-8-8-|7-7-7-7-7-7-7-7-|6-6-6-6-6-6-6-6-|0-0-0-0-0-0-0-0-|

 |---last--time---|
e|----------------|
B|----------------|
G|----------------|
D|----------------|
A|----------------|
E|5-5-5-5-5-5-5-5-|

Intro PT 2

 |--------x4-------|
e|-----------------|
B|-----------------|
G|-----------------|
D|7609997608/998877|
A|7607777608/998877|
E|760---7608/998877|

Verse (repeat all the way through verse)

e|----------------|
B|----------------|
G|----------------|
D|9~9~9~9~9~9~9~9~|
A|----------------|
E|7~7~7~7~7~7~7~7~|

Bridge (All Palm Muted)

e|----------------|----------------|----------------|----------------|
B|----------------|----------------|----------------|----------------|
G|----------------|----------------|----------------|----------------|
D|----------------|----------------|----------------|----------------|
A|----------------|----------------|----------------|----------------|
E|4-4-4-4-4-4-4-4-|4-4-4-4-4-4-4-4-|6-6-6-6-6-6-6-6-|6-6-6-6-6-6-6-6-|

e|----------------|----------------|----------------|----------------|
B|----------------|----------------|----------------|----------------|
G|----------------|----------------|----------------|----------------|
D|----------------|----------------|----------------|----------------|
A|----------------|----------------|----------------|----------------|
E|7-7-7-7-7-7-7-7-|7-7-7-7-7-7-7-7-|2-2-2-2-2-2-2-2-|2-2-2-2-2-2-2-2-|

e|----------------|----------------|----------------|----------------|
B|----------------|----------------|----------------|----------------|
G|----------------|----------------|----------------|----------------|
D|----------------|----------------|----------------|----------------|
A|----------------|----------------|5-5-5-5-5-5-5-5-|5-5-5-5-5-5-5-5-|
E|4-4-4-4-4-4-4-4-|4-4-4-4-4-4-4-4-|----------------|----------------|

Chorus (listen to song for timing of strums)

 |-------------x2-----------|
e|--------------------------|
B|--------------------------|
G|--------------------------|
D|7~9~11~9~11~12~9~11~12~11~|
A|--------------------------|
E|7~9~11~9~11~12~9~11~12~11~|

Repeat Intro PT2  x4

Repeat Verse

Repeat Bridge

Repeat Chorus x4

e|-------------------|
B|-------------------|
G|-------------------|
D|7~~~~~~~~~~~~~~~~~~|
A|-------------------|
E|7~~~~~~~~~~~~~~~~~~|

Repeat Intro PT2 x8

Enjoy!!
Tap to rate this tab
# A B C D E F G H I J K L M N O P Q R S T U V W X Y Z