Song name
# A B C D E F G H I J K L M N O P Q R S T U V W X Y Z

Blink 182 - Up All Night tab

Tabbed by: atomicpunk21

My first tab ever, learned by ear, my struming patterns are off in this one and a few
notes are missing, I can already tell you that

Tuning: Drop D cap 2nd fret (im tabbing it as if the capo was not there) and another
thing, this song was first actually made around recording for Blink-182's self-titled album
and I am positive this is how Tom Delonge plays it because this is how other songs were 
played, ex:Feeling This

Intro
e|----------------------------------------|-----------|          e|-------|
B|----------------------------------------|-----------|          B|-------|
G|----------------------------------------|-----------| 3rd time G|-------|
D|9-9-9-9-8-8-8-8-7-7-7-7-7-7-7-7-6-6-6-6-|12-12-12-12|          D|3-3-3-3|
A|x-x-x-x-x-x-x-x-x-x-x-x-x-x-x-x-x-x-x-x-|x-x-x-x-x-x|          A|x-x-x-x|
D|9-9-9-9-8-8-8-8-7-7-7-7-7-7-7-7-6-6-6-6-|12-12-12-12|          D|3-3-3-3|

Main Riff/pre-verse
e|------------|--------------------|------------|
B|------9-9-9-|--------------------|------------|
G|------9-9-9-|--------------------|------------| Let ring before first
D|7-6-2-7-7-7-|7-6-2-9-9-9-8-8-7-7-|7~~~~~~~~~~~|     verse only
A|7-6-2-------|7-6-2-9-9-9-8-8-7-7-|7~~~~~~~~~~~|
D|7-6-2-------|7-6-2-9-9-9-8-8-7-7-|7~~~~~~~~~~~|

Verse
e|-----------------------|
B|-----------------------|
G|-----------------------|
D|7-7-7-7-7-7-7-7-7-7-7-7| Keep repeating
A|x-x-x-x-x-x-x-x-x-x-x-x|
D|7-7-7-7-7-7-7-7-7-7-7-7|

Pre Chorus
e|----------------|----------------|----------------|---------------|
B|----------------|----------------|----------------|---------------|
G|----------------|----------------|----------------|---------------|Last
D|----------------|----------------|----------------|---------------|Part
A|4-4-4-4-4-4-4-4-|6-6-6-6-6-6-6-6-|7-7-7-7-7-7-7-7-|2-2-2-2-2-2-2-2|
D|4-4-4-4-4-4-4-4-|6-6-6-6-6-6-6-6-|7-7-7-7-7-7-7-7-|2-2-2-2-2-2-2-2|
  . . . . . . . .  . . . . . . . .  . . . . . . . .  . . . . . . . .
e|----------------|----------------|
B|----------------|----------------|
G|----------------|----------------|
D|----------------|7-7-7-7-7-7-7-7-|
A|4-4-4-4-4-4-4-4-|5-5-5-5-5-5-5-5-|
D|4-4-4-4-4-4-4-4-|----------------|
  . . . . . . . .  . . . . . . . .

Chorus
e|------------------------------------------------------------------------|
B|------------------------------------------------------------------------|
G|------------------------------------------------------------------------|
D|7-7-7-9-9-9-11-11-11-12-12-11-11-12-12-9-9-9-11-11-11-12-12-12-11-11-12-|
A|x-x-x-x-x-x-x-x-x-x-x-x-x-x-x-x-x-x-x-x-x-x-x-x-x-x-x-x-x-x-x-x-x-x-x-x-|
D|7-7-7-9-9-9-11-11-11-12-12-11-11-12-12-9-9-9-11-11-11-12-12-12-11-11-12-|

That's it, and at the end of the chorus before the last main riff and after the main
riff hold an A chord

. = Palm Mute

If you have any questions leave a comment
Tap to rate this tab
# A B C D E F G H I J K L M N O P Q R S T U V W X Y Z