Song name
# A B C D E F G H I J K L M N O P Q R S T U V W X Y Z

Blink 182 - My Pet Sally tab

----------------------------------------------------------
		My pet sally - Blink 182
----------------------------------------------------------
Tabbed By: J.D. Norwood (j_d_norwood12@hotmail.com)

This is an awsome song by blink its really short but
it sounds cool and theres only one other tab of this song and
its not all in tab it's in stuff like "A chord then D chord"
wich i don't understand so i hope you like my tab.


. = palm mute
p = pull of
h = hammer on

			pre Intro
e|--------------------------------------------------------|
B|--------------------------------------------------------|
G|--------------------------------------------------------|
D|--start at 7 and slide up as high as you can------------|
A|--------------------------------------------------------|
E|--------------------------------------------------------|
    ...................PM.....................

	Intro 1                      Intro 2
e|---------------------------|-----------------------------|
B|---------------------------|-----------------------------|
G|---9---9--9--7---7---7p6---|-6---6---6--7-7-7p6----------|
D|-7---7---------7---7-------|---7---7---------------------|
A|---------------------------|-----------------------------|
E|---------------------------|-----------------------------|
  ... ...        ... ...        ... ...  

(everything on the D string is palm muted)   

Intro 1 is played at the begining 4 times and then after the 
verse and chorus are played Intro 1 is played 3 time and Intro 2
is played once right after intro 1 


			Verse 1
e|--------------------------------------------------------|
B|--------------------------------------------------------|
G|------9999------7777------9999-7777---------------------|
D|-7777-9999-7777-7777-7777-9999-7777-7777----------------|
A|-7777-7777-7777-5555-7777-7777-5555-7777----------------|
E|-5555------5555------5555-----------5555----------------|

			Chorus
e|---------------------------------------------------------|
B|---------------------------------------------------------|
G|-9999-77--------9999-77---------999999-77777777777777----|
D|-9999-77-777777-9999-77-777777--999999-77777777777777-7--|
A|-7777-55-777777-7777-55-777777--777777-55555555555555-7--|
E|---------555555---------555555------------------------5--|

			Intro 2
e|---------------------------|-----------------------------|
B|---------------------------|-----------------------------|
G|---9---9--9--7---7---7p6---|-6---6---6--7-7-7-6----------|
D|-7---7---------7---7-------|---7---7------------7--------|
A|---------------------------|-----------------------------|
E|---------------------------|-----------------------------|
  ... ...        ... ...       ........PM..........

		Pre Bridge
e|--------------------------------------------------------|
B|--------------------------------------------------------|
G|-77-----77-----77---------------------------------------|
D|-77-----77-----77---------------------------------------|
A|-55-----55-----55---------------------------------------|
E|--------------------------------------------------------|

			Bridge
e|--------------------------------------------------------|
B|--------------------------------------------------------|
G|--------------------------------------------------------|
D|-7777777777777777777777777777777777777777777777777777---|
A|-7777777777777777777777777777777777777777777777777777---|
E|-5555555555555555555555555555555555555555555555555555---|

			Verse 2
e|--------------------------------------------------------|
B|--------------------------------------------------------|
G|------9999------7777------9999-7777-6666----------------|
D|-7777-9999-7777-7777-7777-9999-7777-6666-7777-----------|
A|-7777-7777-7777-5555-7777-7777-5555-4444-7777-----------|
E|-5555------5555------5555----------------5555-----------|

Order
Pre Intro x1
Intro1 x4
verse1 x2
Chorus x1
Intro1 x3
Intro2 x1
Verse1 x2
Chorus x1
Pre Bridge x1
Bridge x1
Verse1 x1
Verse2 x1
==========================================================
Tap to rate this tab
 
# A B C D E F G H I J K L M N O P Q R S T U V W X Y Z