Song name
# A B C D E F G H I J K L M N O P Q R S T U V W X Y Z

Blink 182 - Ghost On The Dance Floor tab

Blink-182 - Ghost On The DanceFloor

Intro :

-------------------------------|
-------------------------------|
-------------------------------|
--9-9-9-9-9-9-9-9-9------------| > Repeat that during the intro Up/Down
-------------------------------|
--9-9-7-7-7-7-7-7-7------------|


Verse 1 :

----------------------------------------------|
----------------------------------------------|
--11-11-11-11--9-9--8-8--9-9-9-9--8-8-8-8--9--|
--9--9--9--9---9-9--9-9--9-9-9-9--9-9-9-9--9--| > Repeat 8 times Up/Down
--x--x--x--x---x-x--x-x--x-x-x-x--x-x-x-x--x--|
----------------------------------------------|


Chorus 1 :

------------------------------|
------------------------------|
--4---9-------4---9-----------|
--4---9---4---4---9---4-------| > Let Ring
--2---7---4---2---7---4-------|
----------2-----------2-------|


Intro 2 :

-------------------------------|
-------------------------------|
-------------------------------|
--9-9-9-9-9-9-9-9-9------------| > Repeat that during the intro Up/Down
-------------------------------|
--9-9-7-7-7-7-7-7-7------------|


Verse 2 :

----------------------------------------------|
----------------------------------------------|
--11-11-11-11--9-9--8-8--9-9-9-9--8-8-8-8--9--|
--9--9--9--9---9-9--9-9--9-9-9-9--9-9-9-9--9--| > Repeat 4 times Up/Down
--x--x--x--x---x-x--x-x--x-x-x-x--x-x-x-x--x--|
----------------------------------------------|


Chorus 2 :

------------------------------|
------------------------------|
--4---9-------4---9-----------|
--4---9---4---4---9---4-------| > Repeat 2 times
--2---7---4---2---7---4-------|
----------2-----------2-------|


Bridge :

I will figure it out when the song comes out.



Chorus 3 :

------------------------------|
------------------------------|
--4---9-------4---9-----------|
--4---9---4---4---9---4-------| > Repeat 2 times
--2---7---4---2---7---4-------|
----------2-----------2-------|

------|
------|
--4---|
--4---| > Let ring at the end.
--2---|
------|


Hope you'll like it, I tab it thanks to youtube videos from their Summer Tour 2011.
Check out my channel @ http://www.youtube.com/user/livedrad for the cover.
Tap to rate this tab
# A B C D E F G H I J K L M N O P Q R S T U V W X Y Z