Song name
# A B C D E F G H I J K L M N O P Q R S T U V W X Y Z

Blink 182 - Waggy tab

Waggy by Blink182
From Dude Ranch
Tabbed by chargerbandit
Tabbed 21.8.2011

"Open your eyes,you can suck in your pride,you can live your life all on your own"

(/) Slide Up  (\) Slide Down  (h) Hammer On  (p) Pull Off  (b) Bend (r) Release (v) 
Vibrato (l) Let ring

pre-intro - repeat it a few times
E|-----------------------------------|
B|-----------------------------------|
G|---3-2-----------------------------|
D|---2-2-----------------------------|
A|-0---------------------------------|
E|-----------------------------------|

intro - played a few times thru
E|-----------------------------------|
B|-----------------------------------|
G|--6-6-6-9-7-6-7-9-----7-9----------|
D|-------------------7------7--------|
A|--4-4-4-7-5-4-5-7-----5-7----------|
E|-------------------5------5--------|

then play pre-intro for "watching your house..."

verse1 - "im trying to be what you want me to be..." each chord a few times
E|-----------------------------------|
B|-----------------------------------|
G|-----------------------------------|
D|--------7--------------------------|
A|--7--4--5--------------------------|
E|--5--2-----------------------------|

verse2 - "i think you need some time alone" each chord a few times
E|-----------------------------------|
B|-----------------------------------|
G|-----------------------------------|
D|----7------------------------------|
A|-4--5--9---------------------------|
E|-2-----7---------------------------|

"you say you want someone to call your own..." each chord a few times
E|-----------------------------------|
B|-----------------------------------|
G|-----------------------------------|
D|----7------------------------------|
A|-4--5--7---------------------------|
E|-2-----5---------------------------|

then repeat the "i think you need some time alone" part for "open your eyes...",then

"you can live your life all on your own"
E|-----------------------------------|
B|-----------------------------------|
G|-----------------------------------|
D|----7------------------------------|
A|-4--5------------------------------|
E|-2---------------------------------|

then play the intro a few times again
now repeat pre-intro a lot

"but what did you expect from me"
E|-----------------------------------|
B|-----------------------------------|
G|-----------------------------------|
D|-------7---------------------------|
A|-7--4--5---------------------------|
E|-5--2------------------------------|

then do these all over again:

"i dont wanna live this lie again"
E|-----------------------------------|
B|-----------------------------------|
G|-----------------------------------|
D|----7------------------------------|
A|-4--5--9---------------------------|
E|-2-----7---------------------------|

"i know ill get it right..." each chord a few times
E|-----------------------------------|
B|-----------------------------------|
G|-----------------------------------|
D|----7------------------------------|
A|-4--5--7---------------------------|
E|-2-----5---------------------------|

then repeat the "i dont wanna live this lie again" part for "ill open my eyes",then

"ill just jack off in my room until then"
E|-----------------------------------|
B|-----------------------------------|
G|-----------------------------------|
D|----7------------------------------|
A|-4--5-----------end----7-----------|
E|-2--------------on-----5-----------|

pre-solo - each chord palm muted
E|-----------------------------------|
B|-----------------------------------|
G|-----------------------------------|
D|-----------------------------------|
A|-77-55-----------------------------|
E|-55-33-----------------------------|

solo - repeat this for quite a while,fast
E|-----------------------------------|
B|-----------------------------------|
G|-----------------------------------|
D|-----------------------------------|
A|-0p-4h-0p-5h-----------------------|
E|-----------------------------------|

then repeat intro a few times,then repeat pre-intro a few times and end on the first 
note from pre-intro

This was a tricky tab to put together,loads of parts,I am pretty sure this is all correct.
I know there are some variations on pre-intro,but this one is probably the best.
For softies,you can do this as pre-intro

E|-----------------------------------|
B|-----------------------------------|
G|---7-6-----------------------------|
D|-----------------------------------|
A|-0---------------------------------|
E|-----------------------------------|
Tap to rate this tab
# A B C D E F G H I J K L M N O P Q R S T U V W X Y Z