Song name
# A B C D E F G H I J K L M N O P Q R S T U V W X Y Z

Blink 182 - Lifes So Boring tab

Life's So Boring by Blink182
From Enema of the State Demo Tape
Tabbed by chargerbandit
Tabbed 8.5.2011

Amazing song,too bad it wasn't on the album.

This is tabbed by the demo tape which is half tone down,
if you want to play original,half tone up(one fret up).

(/) Slide Up  (\) Slide Down  (h) Hammer On  (p) Pull Off  (b) Bend (r) Release (v) 
Vibrato (l) Let ring


acoustic part
E|-----------------------------------|
B|--------6-----6-----------6-----6--|
G|--4--4-----4-----4--4--4-----4-----|
D|-----------------------------------|
A|-----------------------------------|
E|-----------------------------------|

verse
E|--------------|
B|--------------|
G|--------------|
D|--------3--4--|
A|--4--6--1--2--|
E|--2--4--------|
after playing the amount of times,end on first chord

tiny solo
E|-----------------------|
B|-----------------------|
G|-----6-----6--4--3-|---|
D|--4-----4----------|6l-|
A|-------------------|---|
E|-------------------|---|
                     |just the last time|

Structure:

acoustic - 4x
verse - 5x
acoustic - 4x
verse - 2x
tiny solo - 8x
acoustic - 4x
verse - 2x
tiny solo - 8x
acoustic - repeat till the end,end on first note
Tap to rate this tab
 
# A B C D E F G H I J K L M N O P Q R S T U V W X Y Z