Song name
# A B C D E F G H I J K L M N O P Q R S T U V W X Y Z

Blink 182 - I Miss You Live tab

-------------------------------------------------------------------------------
			     I Miss You - Blink 182
-------------------------------------------------------------------------------
Tabbed by: Tom Jakes
Email: tomjakes13@hotmail.co.uk

Capo 2nd Fret: *I HAVE JUST REALISED AFTER TYPING OUT THE TAB THAT THE FRET NUMBERS !ARE 
NOT! RELATIVE TO THE CAPO

http://www.youtube.com/watch?v=cNdAvPEc7e0

Above is the link to my cover of the song. Note that i have since covering it worked out 
the final outro riffs that are amongst all the chord slides

This is my first ever tab but i'm pretty sure it is 99.99% accurate. This is the outro 
solo to the live version of i miss you at epicentre 2010. It is reminiscent of the outro 
riff to The Adventure by AVA

Tuning: Standard Capo 2nd fret

e|---------------------------------------------------------------------------|
B|---------------------------------------------------------------------------|
G|--11----11----11----11----11----11----9----9-------------------------------|
D|------9-----9-----9-----9-----9-----9-----9-----9--------------------------|
A|---------------------------------------------------------------------------|
E|---------------------------------------------------------------------------|

e|------------------------------------------------------------------------------|
B|------------------------------------------------------------------------------|
G|--11----11----11----11----11----11-/-13----9----------------------------------|
D|------9-----9-----9-----9-----9----------------9------------------------------|
A|------------------------------------------------------------------------------|
E|------------------------------------------------------------------------------|

e|---------------------------------------------------------------------------|
B|---------------------------------------------------------------------------|
G|--11----11------11----11----8h9p8------------------------------------------|
D|------9-----9-9-----9-----9--------9---------------------------------------|
A|---------------------------------------------------------------------------|
E|---------------------------------------------------------------------------|

For a brief moment he does a little slide but i'm not sure where on the fretboard, but 
he then goes into this



e|-----------------------------------------14--------------------------------|
B|--12-12-12-14-(x8)--12-(x7)14-(x8)-12-12----12-----------------------------|
G|--11-11-11-11-------11-----11------11-11-------11--------------------------|
D|---------------------------------------------------------------------------|
A|---------------------------------------------------------------------------|
E|---------------------------------------------------------------------------|

e|-14-----14-------14--------------------------------------------------------|
B|-----------12-------12----12----14------------14----11h12----12------------|
G|-----11-------11-------11------------11----11-------------11---------------|
D|---------------------------------------------------------------------------|
A|---------------------------------------------------------------------------|
E|---------------------------------------------------------------------------|

Then again, another slide that i couldn't work out. Then mainly the outro consists of 
the chorus chords just being strummed fast and being slid about with the addition of 2 
riffs below, keep an ear out for them because they are in there.



 Riff 1
e|---------------------------------------------------------------------------|
B|---------------------------------------------------------------------------|
G|---------------------------------------------------------------------------|
D|---------------------------------------------------------------------------|
A|--6p0-7p0-6p0-7p0-6p0-7p0-9p0----------------------------------------------|
E|---------------------------------------------------------------------------|

Riff 2
e|---------------------------------------------------------------------------|
B|---------------------------------------------------------------------------|
G|---------------------------------------------------------------------------|
D|---------------------------------------------------------------------------|
A|--6p0-7p0-6p0-7p0-6p0-9p0-7p0-6p0-4p0-6p0-4p0-6p0--------------------------|
E|---------------------------------------------------------------------------|

Final Outro Riff (heard right at the end) Not sure of the rhythm entirely so i just 
tabbed the correct notes
e|---------------------------------------------------------------------------|
B|---------------------------------------------------------------------------|
G|--8----9----11-------------------------------------------------------------|
D|--9----9----9--------------------------------------------------------------|
A|--0----0----0--------------------------------------------------------------|
E|---------------------------------------------------------------------------|

Apologies for poor timing description and what not, but these are the correct notes, 
that i can guarantee :)

************************************

| /   slide up
| \   slide down
| h   hammer-on
| p   pull-off
| ~   vibrato
| +   harmonic
| x   Mute note
| b   Bend
| pb  Pre-bend
| br  Bend release
| pbr Pre-bend release
| brb Bend release bend

************************************
Tap to rate this tab
 
# A B C D E F G H I J K L M N O P Q R S T U V W X Y Z