Song name
# A B C D E F G H I J K L M N O P Q R S T U V W X Y Z

Blink 182 - Up All Night tab

Up All Night,Blink-182

This is my first tab so go easy on me!

INTRO a x2 (I think it is bass)
e|-----------------|-----------------|-----------------|-----------------|
B|-----------------|-----------------|-----------------|-----------------|
G|-----------------|-----------------|-----------------|-----------------|
D|-----------------|-----------------|-----------------|-----------------|
A|-----------------|-----------------|-----------------|-5-5-5-5-5-5-5-5-|
E|-7-7-7-7-6-6-6-6-|-5-5-5-5-5-5-5-5-|-4-4-4-4-4-4-4-4-|-----------------|

INTRO b x1
e|-----------------|-----------------|-----------------|-----------------|
B|-----------------|-----------------|-----------------|-----------------|
G|-----------------|-----------------|-----------------|-----------------|
D|-----------------|-----------------|-----------------|-----------------|
A|-----------------|-----------------|-----------------|-----------------|
E|-7-7-7-7-6-6-6-6-|-5-5-5-5-5-5-5-5-|-4-4-4-4-4-4-4-4-|-3-3-3-3-3-3-3-3-|

MAIN RIFF x4
e|-----------------|-----------------|-----------------|-----------------|
B|-----------------|-----------------|-----------------|-----------------|
G|----------9--9---|-----------------|-----------------|-----------------|
D|----------9--9---|-----------------|-----------------|-----------------|
A|--7\6-----7--7---|--7\6------8/9-9-|--8-8-7-7--------|-----------------|
E|--5\4--0---------|--5\4--0---6/7-7-|--6-6-5-5--------|-----------------|

VERSE (play chord over and over)
"Everyone wants to call it all around our life with a better name..."
e|-----------------|-----------------|-----------------|-----------------|
B|-----------------|-----------------|-----------------|-----------------|
G|-----------------|-----------------|-----------------|-----------------|
D|--7--------------|-----------------|-----------------|-----------------|
A|--x--------------|-----------------|-----------------|-----------------|
E|--5--------------|-----------------|-----------------|-----------------|

PRE-CHORUS x1
"Let me get this straight, do you want me here? As I struggle through..."
e|-----------------|-----------------|-----------------|-----------------|
B|-----------------|-----------------|-----------------|-----------------|
G|-----------------|-----------------|-----------------|-----------------|
D|-4-4-4-4-4-4-4-4-|-4-4-4-4-4-4-4-4-|-7-7-7-7-7-7-7-7-|-7-7-7-7-7-7-7-7-|
A|-4-4-4-4-4-4-4-4-|-4-4-4-4-4-4-4-4-|-7-7-7-7-7-7-7-7-|-7-7-7-7-7-7-7-7-|
E|-2-2-2-2-2-2-2-2-|-2-2-2-2-2-2-2-2-|-4-4-4-4-4-4-4-4-|-4-4-4-4-4-4-4-4-|
.....................................................................
e|-----------------|-----------------|-----------------|-----------------|
B|-----------------|-----------------|-----------------|-----------------|
G|-----------------|-----------------|-----------------|-----------------|
D|-7-7-7-7-7-7-7-7-|-7-7-7-7-7-7-7-7-|-2-2-2-2-2-2-2-2-|-2-2-2-2-2-2-2-2-|
A|-7-7-7-7-7-7-7-7-|-7-7-7-7-7-7-7-7-|-2-2-2-2-2-2-2-2-|-2-2-2-2-2-2-2-2-|
E|-5-5-5-5-5-5-5-5-|-5-5-5-5-5-5-5-5-|-0-0-0-0-0-0-0-0-|-0-0-0-0-0-0-0-0-|
.....................................................................
e|-----------------|-----------------|-----------------|-----------------|
B|-----------------|-----------------|-----------------|-----------------|
G|-----------------|-----------------|-7-7-7-7-7-7-7-7-|-7-7-7-7-7-7-7-7-|
D|-4-4-4-4-4-4-4-4-|-4-4-4-4-4-4-4-4-|-7-7-7-7-7-7-7-7-|-7-7-7-7-7-7-7-7-|
A|-4-4-4-4-4-4-4-4-|-4-4-4-4-4-4-4-4-|-5-5-5-5-5-5-5-5-|-5-5-5-5-5-5-5-5-|
E|-2-2-2-2-2-2-2-2-|-2-2-2-2-2-2-2-2-|-----------------|-----------------|
.....................................................................

CHORUS x2
"They keep me up alllllll niiiiiiight...."
e|----------------------------------------|----------------------------------------------|
B|----------------------------------------|----------------------------------------------|
G|----------------------------------------|----------------------------------------------|
D|-7-7-7-9-9-9-11-11-11-9-9-9-11-11-12-12-|-9-9-9-11-11-11-12-12-12-11-11-11-12-12-12-12-|
A|-x-x-x-x-x-x-x--x--x--x-x-x-x--x--x--x--|-x-x-x-x--x--x--x--x--x--x--x--x--x--x--x--x--|
E|-5-5-5-7-7-7-9--9--9--7-7-7-9--9--10-10-|-7-7-7-9--9--9--10-10-10-9--9--9--10-10-10-10-|

MAIN RIFF x4
e|-----------------|-----------------|-----------------|-----------------|
B|-----------------|-----------------|-----------------|-----------------|
G|----------9--9---|-----------------|-----------------|-----------------|
D|----------9--9---|-----------------|-----------------|-----------------|
A|--7\6-----7--7---|--7\6------8/9-9-|--8-8-7-7--------|-----------------|
E|--5\4--0---------|--5\4--0---6/7-7-|--6-6-5-5--------|-----------------|




VERSE (play chord over and over)
"Everyone's cross to bears the crown they wear on endless holiday..."
e|-----------------|-----------------|-----------------|-----------------|
B|-----------------|-----------------|-----------------|-----------------|
G|-----------------|-----------------|-----------------|-----------------|
D|--7--------------|-----------------|-----------------|-----------------|
A|--x--------------|-----------------|-----------------|-----------------|
E|--5--------------|-----------------|-----------------|-----------------|

PRE-CHORUS x1
"Let me get this straight, do you want me here? As I struggle through..."
e|-----------------|-----------------|-----------------|-----------------|
B|-----------------|-----------------|-----------------|-----------------|
G|-----------------|-----------------|-----------------|-----------------|
D|-4-4-4-4-4-4-4-4-|-4-4-4-4-4-4-4-4-|-7-7-7-7-7-7-7-7-|-7-7-7-7-7-7-7-7-|
A|-4-4-4-4-4-4-4-4-|-4-4-4-4-4-4-4-4-|-7-7-7-7-7-7-7-7-|-7-7-7-7-7-7-7-7-|
E|-2-2-2-2-2-2-2-2-|-2-2-2-2-2-2-2-2-|-4-4-4-4-4-4-4-4-|-4-4-4-4-4-4-4-4-|
.....................................................................
e|-----------------|-----------------|-----------------|-----------------|
B|-----------------|-----------------|-----------------|-----------------|
G|-----------------|-----------------|-----------------|-----------------|
D|-7-7-7-7-7-7-7-7-|-7-7-7-7-7-7-7-7-|-2-2-2-2-2-2-2-2-|-2-2-2-2-2-2-2-2-|
A|-7-7-7-7-7-7-7-7-|-7-7-7-7-7-7-7-7-|-2-2-2-2-2-2-2-2-|-2-2-2-2-2-2-2-2-|
E|-5-5-5-5-5-5-5-5-|-5-5-5-5-5-5-5-5-|-0-0-0-0-0-0-0-0-|-0-0-0-0-0-0-0-0-|
.....................................................................
e|-----------------|-----------------|-----------------|-----------------|
B|-----------------|-----------------|-----------------|-----------------|
G|-----------------|-----------------|-7-7-7-7-7-7-7-7-|-7-7-7-7-7-7-7-7-|
D|-4-4-4-4-4-4-4-4-|-4-4-4-4-4-4-4-4-|-7-7-7-7-7-7-7-7-|-7-7-7-7-7-7-7-7-|
A|-4-4-4-4-4-4-4-4-|-4-4-4-4-4-4-4-4-|-5-5-5-5-5-5-5-5-|-5-5-5-5-5-5-5-5-|
E|-2-2-2-2-2-2-2-2-|-2-2-2-2-2-2-2-2-|-----------------|-----------------|
.....................................................................

CHORUS x4
"They keep me up alllllll niiiiiiight...."
e|----------------------------------------|----------------------------------------------|
B|----------------------------------------|----------------------------------------------|
G|----------------------------------------|----------------------------------------------|
D|-7-7-7-9-9-9-11-11-11-9-9-9-11-11-12-12-|-9-9-9-11-11-11-12-12-12-11-11-11-12-12-12-12-|
A|-x-x-x-x-x-x-x--x--x--x-x-x-x--x--x--x--|-x-x-x-x--x--x--x--x--x--x--x--x--x--x--x--x--|
E|-5-5-5-7-7-7-9--9--9--7-7-7-9--9--10-10-|-7-7-7-9--9--9--10-10-10-9--9--9--10-10-10-10-|

MAIN RIFF x8
e|-----------------|-----------------|-----------------|-----------------|
B|-----------------|-----------------|-----------------|-----------------|
G|----------9--9---|-----------------|-----------------|-----------------|
D|----------9--9---|-----------------|-----------------|-----------------|
A|--7\6-----7--7---|--7\6------8/9-9-|--8-8-7-7--------|-----------------|
E|--5\4--0---------|--5\4--0---6/7-7-|--6-6-5-5--------|-----------------|
Tap to rate this tab
 
# A B C D E F G H I J K L M N O P Q R S T U V W X Y Z